, Axe To Grind(solos 1-3 & Break) Tabs, Chords, Lyrics

, Axe To Grind(solos 1-3 & Break) Tabs, Chords

 SITE MENU
 Request Tabs
 Add/Correct Tabs
 DMCA Policy
 Country Sheet Music
0

BROWSE LYRICS AND TABS BY ARTIST/BAND NAME: SEARCH HERE:
A B C D E F G H I J K L M N O P Q R S T U V W X Y Z #
 

- Axe To Grind(solos 1-3 & Break) (Tabs)


CD
 Sheet music
Posters
Hellecasters:Axe to Grind (Solos 1-3 and Break)

Solo #1

E----------------------------------------------------------
B----------------------------------------------------------
G--------------------------------------------11---9-12b(13)
D-5-4-3-----------------------5b(6)------------------------
A-------5b(7)-5-7-----7-5/7-7-------7--10/11---11----------
E-----------------0-9--------------------------------------


E----------------------------------------------------------
B-10----9--------------------------------14-13-12-------12-
G----11---9-----9\7------12h13-----14-15----------13-15----
D------------11---------------14p12------------------------
A-------------------10h11----------------------------------
E----------------------------------------------------------

E----15-16-14-19-14----17------------17--21-17-18-19-16-17-
B-15----------------15---12-14/15/17---17------------------
G----------------------------------------------------------
D----------------------------------------------------------
A----------------------------------------------------------
E----------------------------------------------------------


E-16p14----------------------------------------------------
B-------17----------15----14-------------12----------------
G----------16p15p14----16----14-------------14-------------
D-------------------------------14p13p12-------12\11-------
A----------------------------------------------------------
E----------------------------------------------------------

E----------------------------------------------------------
B------9---------------------------------------------------
G----9---9-8-7---5h6---------------------------------------
D-/9-----------7-----7-------------------------------------
A----------------------------------------------------------
E----------------------------------------------------------

Solo #2

I believe he is using a B-bender here. I do not have one so
these bends are semi-correct

E-------------------------0--------------------------------
B-------------------------------------5-4-3--7b(8)---------
G-------------------------------4-3-2--------7--7----------
D-----------------------2-5\4-2----------------------------
A-------0-0-------0-3h4------------------------------------
E-3b(5)-----3b(5)------------------------------------------

E----------------------------------------------------------
B-5-4-3--------3-------------------------------------------
G-------5bh(7)---r5-4-2-4-2-------2-4-2--------------------
D---------------------------5-4-5-------5-4-5-2-0--4b(5)r4-
A-------------------------------------------------4--------
E----------------------------------------------------------

                      A.H.      A.H.  A.H.
E----------------------------------------------------------
B----------------------------------------------------------
G-----0---------------5b(6)-----5b(6)-5b(6)-----5b(6)-5b(6)
D-2-----4b(5)(7)r4----------7p5-------------7p5------------
A---4------------------------------------------------------
E----------------------------------------------------------

Once again B-bender.

E--------------------9----0----10----0----12-0-14-0-15-0-14
B------------7b(8)r7---10---10----10---10------------------
G-----5b(6)--7b(9)r7---------------------------------------
D-7p5------0-----------------------------------------------
A----------------------------------------------------------
E----------------------------------------------------------

E-0-12-0-10-12---------------------------------------------
B--------------13b(14)-14-12-10-10-------------------------
G----------------------------------------------------------
D----------------------------------------------------------
A----------------------------------------------------------
E----------------------------------------------------------


Solo #3


E----------------------------------------------------------
B-14b(16)-14b(16)r14-11-14b(16)-14b(16)r14-10-14b(16)------
G----------------------------------------------------------
D----------------------------------------------------------
A----------------------------------------------------------
E----------------------------------------------------------

E---------------------------------------------13b(15)------
B-14b(16)-14b(16)r14-11-14b(16)-14b(16)r14-10--------------
G----------------------------------------------------------
D----------------------------------------------------------
A----------------------------------------------------------
E----------------------------------------------------------

E---------------------------------------------18b(20)------
B-18b(20)-18b(20)r18-16-18b(20)-18b(20)r18-17--------------
G----------------------------------------------------------
D----------------------------------------------------------
A----------------------------------------------------------
E----------------------------------------------------------


E----------17-18-------------17-18----17-15-15h17p15----15-
B-20-19-20-------------18-20-------20----------------18----
G-------------------19-------------------------------------
D----------------20----------------------------------------
A----------------------------------------------------------
E----------------------------------------------------------

E-17-------------------------------------------------------
B----18-18b(20)--------------------------------------------
G----------------------------------------------------------
D----------------------------------------------------------
A----------------------------------------------------------
E----------------------------------------------------------

Break

E---------------0------------------------------------------
B---------8---0-------0---------------1---0----------------
G-----7-----7-----7\5---------0---3-4---3---0--------------
D-7h9---9---------------7---7---0-------------2-0--0-------
A-------------------------8-----------------------3--1-2---
E-------------------------------------------------------3-1




Hellecasters Tabs & Chords



Hellecasters Tabs, Tablatures, Chords, Lyrics

Buy Hellecasters CD
Hellecasters
Buy Hellecasters CD

  1. Hellecasters - Axe To Grind(intro & Main Theme) Tabs
  2. Hellecasters - Axe To Grind(solos 1-3 & Break) Tabs
  3. Hellecasters - Hellecasters Theme Tabs
  4. Hellecasters - The Beak & The Claw Tabs



cowboylyrics.com
All lyrics are property and copyright of their owners. All lyrics provided for educational purposes only.