, Hellecasters Theme Tabs, Chords, Lyrics

, Hellecasters Theme Tabs, Chords

 SITE MENU
 Request Tabs
 Add/Correct Tabs
 DMCA Policy
 Country Sheet Music
0

BROWSE LYRICS AND TABS BY ARTIST/BAND NAME: SEARCH HERE:
A B C D E F G H I J K L M N O P Q R S T U V W X Y Z #
 

- Hellecasters Theme (Tabs)


CD
 Sheet music
Posters
Hellecaster Theme - All Lead Parts
The Hellecasters

Intro:
 ..this part played slow, 1 octave lower ..                      
-------------------------------------------
-------------------------------------------
-------------------------------------------
------------5-5h7-5-4-(4)\0--2-------------
--0-2-3-5/7--------------------2-----------
---------------------------------3-2-0-----

------0-3-2-0---0-----0------------------0-3-2-0---0-----0----------------------0-3-2-0---0------
--0h3---------3---3/5---3-0-0--------0h3---------3---3/5---3---7b-7br (7)\--0h3---------3---3/5--
------------------------------2\0-2--------------------------5-----------------------------------
-------------------------------------------------------------------------------------------------
-------------------------------------------------------------------------------------------------
-------------------------------------------------------------------------------------------------

--0-----------------------3-5-3-2-(2)/5-6-7----------0-3-2-0---0-----0-------------------0-3-2-0--
----3-0-0---------0-1-3/5-------------------0-0--0h3---------3---3/5---3-0-0---------0h3----------
----------2\-0-2-------------------------------------------------------------2\-0-2---------------
--------------------------------------------------------------------------------------------------
--------------------------------------------------------------------------------------------------
--------------------------------------------------------------------------------------------------

----0-----0--------------------------0-3-2-0---0-----0--------------------------3-5-3-2--------
--3---3/5---3--------5-8-7-(7)\--0h3---------3---3/5---3-0-3-0-----0----0-1-3/5---------3-3/5--
--------------5----5-------------------------------------------2-0---2-------------------------
-----------------5-----------------------------------------------------------------------------
-----------------------------------------------------------------------------------------------
-----------------------------------------------------------------------------------------------

First Solo:(use a b-bender if you have one)
-----------------------------12----10------------------10-------------------------------5---3----------
-----------------10-----10bh----10----10-(10br)----10b-------10b-10---8b-8---5b-5b--3bh---3---3-(3br)--
-----------11h12----12-(12)---------------------12--------11--------9------9-7--7----------------------
--11/12-12---------------------------------------------------------------------------------------------
-------------------------------------------------------------------------------------------------------
-------------------------------------------------------------------------------------------------------

--------3---3---------------------------------------------12----10-------------------10----10--------------
----3bh---3---3-(3br)---3b---3b---3------------10----10bh----10----10-(10rb)----10bh----10----10-(10br)----
--5-------------------5------------------11h12----12-------------------------12-------------------------0--
---------------------------4----4---7/12-------------------------------------------------------------------
-----------------------------------------------------------------------------------------------------------
-----------------------------------------------------------------------------------------------------------
 ..with slide................................................................................
------------------------------------------0----------------------------------------------------
--17/19-19-18-19-19-(19)\-15/17----17-----0----15----0----13----0----12----0----10----0---8-7--
--17/19-19-18-19-19-(19)\-16/17-17----17\16-16----16---14----14---12----12---11----11---9---8--
-----------------------------------------------------------------------------------------------
-----------------------------------------------------------------------------------------------
-----------------------------------------------------------------------------------------------

Fill:
------0-3-2-0---0-----0------------------03-2-0---0-----0-----2h3-2------0-3-2-0----0-----0----------
--0h3---------3---3/5---3-0----------0h3--------3---3/5---3-1--------0h3---------/3---3/5---3-0-3-0--
----------------------------4\2-0-2------------------------------------------------------------------
-----------------------------------------------------------------------------------------------------
-----------------------------------------------------------------------------------------------------
-----------------------------------------------------------------------------------------------------

-------------------3-5-3-2---0------------------
------0----0-1-3/5---------3---3-0--------------
--2-0---2--------------------------3p2-0--------
-----------------------------------------2-0-2--
------------------------------------------------
------------------------------------------------

Second Solo:
------8------5----------------------------------------------------------------15p12-15-15/17-17\15p12--
--8bh---8br----8p5-------5---5---------------6---6-8br-(8)-8p6-----8-10b-(10)-15p12-15-15/17-17\15p12--
--7bh---7br--------7/9\7-5-7---7---5---------------------------5/7-------------------------------------
---------------------------------0---7\--5/7---7-------------------------------------------------------
-------------------------------------------------------------------------------------------------------
-------------------------------------------------------------------------------------------------------

--15p12\8-10-----------10-(10)\5/(10)--------------------------------------------------5-------------
--15p12\8-10b-(10br)p8-10-------------5h6p5---------------------3-5h6p5--------------5---------------
--------------------------------------------7-5p4p2-4-0-------4---------8-5\4---4-7b-----7br----5----
--------------------------------------------------------3/5-5-----------------5----------------------
---------------------------------------------------------------------------------------------7-(7)\--
-----------------------------------------------------------------------------------------------------

Third Solo:
------------------5---------8/10-10--7h10p7----------8----8-8\5---5----------------------------
----------------5---7br-5-------------------10-(10)\---10-------6---6--------------------------
----------2-4/5-----------7-------------------------------------------5---5h7-5\4---5-4---0----
--7-----2---------------------------------------------------------------7---------5-----5------
--0-2h3----------------------------------------------------------------------------------------
--------------------------------------------------------------------------------------------3--

--8-10-12-10-8-7-10-8-7----8-7----------------------------------5-7-8-7-5-----7-10-8-7---7h8p7--
------------------------10-----10-8-10-8-------------8-7------6-----------6/8----------8--------
-----------------------------------------9-5h7---5-5------4/5-----------------------------------
-----------------------------------------------0------------------------------------------------
------------------------------------------------------------------------------------------------
------------------------------------------------------------------------------------------------

---------------------------------
---10-8--------------------------
--------9-7-5---4h5p4------------
--------------7-------7---7\5-7--
------------------------5/7------
---------------------------------

Fourth Solo:
--------------------------------------------10----------------------8--------------------
--5-6-6br-5--3/12b-12~-------10--------12bh----12-(12br)\8-8~---------8------------


Hellecasters Tabs & Chords



Hellecasters Tabs, Tablatures, Chords, Lyrics

Buy Hellecasters CD
Hellecasters
Buy Hellecasters CD

  1. Hellecasters - Axe To Grind(intro & Main Theme) Tabs
  2. Hellecasters - Axe To Grind(solos 1-3 & Break) Tabs
  3. Hellecasters - Hellecasters Theme Tabs
  4. Hellecasters - The Beak & The Claw Tabs



cowboylyrics.com
All lyrics are property and copyright of their owners. All lyrics provided for educational purposes only.