Hunter Hayes, Wanted Tabs, Chords, Lyrics

Hunter Hayes, Wanted Tabs, Chords

 SITE MENU
 Request Tabs
 Add/Correct Tabs
 DMCA Policy
 Country Sheet Music
0

BROWSE LYRICS AND TABS BY ARTIST/BAND NAME: SEARCH HERE:
A B C D E F G H I J K L M N O P Q R S T U V W X Y Z #
 

Hunter Hayes - Wanted (Tabs)


Hunter Hayes CD
Hunter Hayes Sheet music
Hunter Hayes Posters
e------3---------3-----3-------3--------3--------3-----3----------
B---3-------3------3-------3-------3--------3------3--------------
G-----0---0----0-----0---0---0--------0---0----0-----0---0--------
D-----------------------------------------------------------------
A---3-----2--------0-----2---------3------2--------0--------------
E--------------------------------------------------------3--------

e------3---------3-----3-------3--------3--------3-----3-----------
B---3-------3------3-------3-------3--------3------3-------0---0---
G-----0---0----0-----0---0---0--------0---0----0-----0---0---0---2-
D------------------------------------------------------------------
A---3-----2--------0-----2---------3------2--------0---------------
E--------------------------------------------------------3--------- Capo on the 4th Fret


Hunter Hayes Tabs & ChordsHunter Hayes Lyrics



Hunter Hayes Tabs, Tablatures, Chords, Lyrics

Buy Hunter Hayes CD
Hunter Hayes
Buy Hunter Hayes CD

  1. Hunter Hayes - All You Ever Chords
  2. Hunter Hayes - Cry With You Chords
  3. Hunter Hayes - Everybody's Got Somebody But Me Chords
  4. Hunter Hayes - I Want Crazy Chords
  5. Hunter Hayes - Invisible Chords
  6. Hunter Hayes - Somebody's Heartbreak Chords
  7. Hunter Hayes - Somebody's Heartbreak 2 Chords
  8. Hunter Hayes - Storm Warning Tabs
  9. Hunter Hayes - Storm Warning Chords
  10. Hunter Hayes - Wanted Chords
  11. Hunter Hayes - Wanted Tabs



cowboylyrics.com
All lyrics are property and copyright of their owners. All lyrics provided for educational purposes only.