Rovers Irish, The Unicorn Tabs, Chords, Lyrics

Rovers Irish, The Unicorn Tabs, Chords

 SITE MENU
 Request Tabs
 Add/Correct Tabs
 DMCA Policy
 Country Sheet Music
0

BROWSE LYRICS AND TABS BY ARTIST/BAND NAME: SEARCH HERE:
A B C D E F G H I J K L M N O P Q R S T U V W X Y Z #
 

Rovers Irish - The Unicorn (Tabs)


Rovers Irish CD
Rovers Irish Sheet music
Rovers Irish Posters
The Unicorn
                        
          
C     x32010  
Dm/G  3x323x    
G7    320001     
C/G   332010
Dm/A  x00231  
G7/B  x23033     
Dm    xx0231      
F6    13x231
F     133211   
C/E   032010   
C7    x32310

Gtr I & II Acoustic   Standard Tuning 

 Intro
  Moderately Q=116(8=s8)
                       C       C     Dm/G  G7
 4/4                                2/4
  Gtr II
  W                Q   E E Q   E E   Q     Q
                   |   | | |   | |   |     |
                   o   / / o   / /   /     /

  Gtr I
          |-3-|                      |-3-|
  H    Q  E E E    E E E E E E E E   E E E E E
|---------0-1-2-||-3-0-3-5-3-0-----|-----------|
|---------------||-------------1---|-----0-3-0-|
|---------------||---------------0-|---0-------|
|---------------||-----------------|-3---------|
|---------------||-----------------|-----------|
|---------------||-----------------|-----------|


          C/G          Dm/A        G7/B
 4/4
  Q        Q            E      E   E E
  |        |            |      |   | |
  o        /            /      /   / /

                        |---3----|
  E E a    E  a     E  +E   E    E E E
|----------3--------3--(3)-(3)---0------||
|-1---4b5-(4)-4b5==(4)r(4)--4----1-1----||
|----------------------------------0-0--||
|------------------------------------2--||
|---------------------------------------||
|---------------------------------------||


 Verse 1 & 4
  $
      C       C         Dm      Dm            G7      G7/B      C       C
  Q   E E Q   E E   Q   E E Q   E   E     Q   E E Q   E E   Q   E E Q   E E
  |   | | |   | |   |   | | |   |   |     |   | | |   | |   |   | | |   | |
  o   / / o   / /   o   / / o   /   /     o   / / o   / /   o   / / o   / /

                                |--3--|
  E E E E E E E E   E E E E E E E E   E   E E E E E E E E   E E E E E E E E
|-----------0-----|-------0-1-0---------|-----------0-----|---------0-3-0---|
|-----1---3---1---|-----3-------3-2---1-|-0-------3---3---|-----3---1---1---|
|---0---0-------0-|---0-----------------|---0---0-----0---|---0---0---------|
|-2---------------|-0-------------------|-----3-------3-2-|---2-----------0-|
|-----------------|---------------------|-----------------|-3---------------|
|-----------------|---------------------|-----------------|-----------------|


      C       C         F6        F         C       C           G7      G7
  Q   E E Q   E E   Q   E E  Q    E E   Q   E E Q   E E   Q     E E Q   E E
  |   | | |   | |   |   | |  |    | |   |   | | |   | |   |     | | |   | |
  o   / / o   / /   o   / /  o    / /   o   / / o   / /   o     / / o   / /

                                                          |-3-|
  E E E E E Q   E   E E E E +E  E E E   E E E E E E E E   E E E E E Q.    E
|-0---------0-----|-1-----5-(5)---1---|-------3-0-------|-----------------0--||
|-1---1---3-1-----|---1-----------1-1-|-----1-1---1-----|-----0-3-0-1--------||
|-----0---3-------|-2-----5-(5)-2-----|---0-0-------0---|---0-----0----------||
|---2---2-------3-|-------------------|-2-------------2-|-3---------2--------||
|-----------------|-------------------|-----------------|--------------------||
|-----------------|-------------------|-----------------|--------------------||


 Chorus 1 & 4
     C      C           Dm      Dm        G7        G7        C         C/G
  Q  E E Q  E E    Q    E E Q   E E   Q   E E  Q    E E   Q   E E Q     E E
  |  | | |  | |    |    | | |   | |   |   | |  |    | |   |   | | |     | |
  o  / / o  / /    o    / / o   / /   o   / /  o    / /   o   / / o     / /

                                                                  |-3-|
  Q  E E Q  E E   +E  E E E E E E E   E E E E +E  E E E   E E E E E E E E E
|----0-0----0-0-|-(0)-----0-1-0-0---|---------------1---|-------------3------|
|----1-1----1---|-------3---------1-|-0-----------3-----|-1-----1-3s5---5-3--|
|-0---------0---|-----2-------------|---0---0-(0)-----0-|--------------------|
|-2---------2---|-------------------|-----0-------------|-----2--------------|
|-3------3------|-------------------|-------------------|---3----------------|
|---------------|-------------------|-------------------|--------------------|


        C       C7        F6        F         C       C           G7     C
  Q     E E Q   E E   Q   E E Q     E E   Q   E E Q   E E   Q     E E Q  E E
  |     | | |   | |   |   | | |     | |   |   | | |   | |   |     | | |  | |
  o     / / o   / /   o   / / o     / /   o   / / o   / /   o     / / o  / /

  |-3-|                       |-3-|                         |-3-|
  E E E E E E E E E   E E E E E E E E E   E E E E E E E E   E E E E E Q  Q
|-----------0-----0-|-1-----------1-----|-----0-0-0-------|-------------------|
|-1-----1-3---1-3---|---1-------1---1---|-----1-----1-----|-----0-3---1-------|
|---0---0-----------|-----2---2---------|---0---------0---|---0---------------|
|-----2-------------|-------3---------3-|-2-------------2-|-3---------2-------|
|-------------------|-------------------|-----------------|-------------------|
|-------------------|-------------------|-----------------|-------------------|


                                                To Coda
          C       C         Dm/G           C/G   Dm/AG7/B
                           2/4         4/4
  Q       E E Q   E   E     Q   Q       Q  Q     E E E E
  |       | | |   |   |     |   |       |  |     | | | |
  o       / / o   /   /     /   /       o  /     / / / /

                  |--3--|       |-3-|      |-3-|
  E   +E  E E E E E E   E   E E E E E   Q  E E E E E E E
|---------3---5-3---------|-----------|------------------||
|-4b5-(4)---5-----5s3---1-|-------0-3-|-1----------------||
|-------------------------|-----0-----|----2p0-----------||
|-------------------------|---3-------|--------2---------||
|-------------------------|-----------|----------3---0-2-||
|-------------------------|-----------|------------3-----||


   Verse 2 & 3
        C       C         Dm      Dm            G7      G7/B      C       C
    Q   E E Q   E E   Q   E E Q   E   E     Q   E E Q   E E   Q   E E Q   E E
    |   | | |   | |   |   | | |   |   |     |   | | |   | |   |   | | |   | |
    o   / / o   / /   o   / / o   /   /     o   / / o   / /   o   / / o   / /

                                  |--3--|
    E E E E E E E E   E E E E E E E E   E   E E E E E E E E   E E E E E E E E
||------------0-----|-------0-1-0---------|-----------0-----|---------0-3-0----|
||o-----1---3---1---|-----3-------3-2---1-|-0-------3---3---|-----3---1---1----|
||----0---0-------0-|---0-----------------|---0---0-----0---|---0---0----------|
||--2---------------|-0-------------------|-----3-------3-2-|---2-----------0--|
||o-----------------|---------------------|-----------------|-3----------------|
||------------------|---------------------|-----------------|------------------|


      C       C           F6        F         C       G7    C
  Q   E E Q   E E   Q     E E   Q   E E   Q   E E Q   E E   Q   Q   H
  |   | | |   | |   |     | |   |   | |   |   | | |   | |   |
  o   / / o   / /   o     / /   o   / /   o   / / o   / /   /

                    |-3-|
  E E E E E Q   E   E E E E E a E E e E   E E e E E E E E   E E H.
|-0---------0-----|-------1---4s5-------|---3---------3---|--------------||
|-1---1---3-1-----|-----1-----5s6-6-----|-----1-------3---|-----1--------||
|-----0---3-------|---2-------------5-5-|-------0---0---0-|---0----------||
|---2---2-------3-|-0-------------------|-2-------3-------|-2------------||
|-----------------|---------------------|-----------------|-3------------||
|-----------------|---------------------|-----------------|--------------||


 Chorus 2 & 3
     C      C           Dm      Dm        G7        G7        C         C/G
  Q  E E Q  E E    Q    E E Q   E E   Q   E E  Q    E E   Q   E


Irish Rovers Tabs & Chords



Irish Rovers Tabs, Tablatures, Chords, Lyrics

Buy Irish Rovers CD
Irish Rovers
Buy Irish Rovers CD

  1. Irish Rovers - Grandma Got Ran Over By a Reindeer Chords
  2. Irish Rovers - Grandma Runover Reindeer Chords
  3. Irish Rovers - The Unicorn Tabs
  4. Irish Rovers - The Unicorn Song Chords
  5. Irish Rovers - Unicorn Chords
  6. Irish Rovers - Wasnt That A Party Chords



cowboylyrics.com
All lyrics are property and copyright of their owners. All lyrics provided for educational purposes only.