Irish Song/Celtic, The Swallow Tail Jig  (mandolin) Tabs, Chords, Lyrics

Irish Song/Celtic, The Swallow Tail Jig (mandolin) Tabs, Chords

 SITE MENU
 Request Tabs
 Add/Correct Tabs
 DMCA Policy
 Country Sheet Music
0

BROWSE LYRICS AND TABS BY ARTIST/BAND NAME: SEARCH HERE:
A B C D E F G H I J K L M N O P Q R S T U V W X Y Z #
 

Irish Song/Celtic - The Swallow Tail Jig (mandolin) (Tabs)


Irish Song/Celtic CD
Irish Song/Celtic Sheet music
Irish Song/Celtic Posters

The Swallow Tail Jig


-----|-----------------|-----------------|-----------------|-----------------|
-----|---------2-------|-5-------2-0-----|---------0-------|-5-4-5---0-------|
--4--|-5-2-2-----2-2---|---2-2-------5---|-4-0-0-----0-0---|-----------5-4---|
-----|-----------------|-----------------|-----------------|-----------------|
       |_|_|   |_|_|     |_|_|   |_|_|     |_|_|   |_|_|     |_|_|   |_|_|


     |-----------------|-----------------|-----------------|-----------------||
     |---------2-------|-5-------2---4---|-5-4-5---0-------|-----------------o|
     |-5-2-2-----2-2---|---2-2-----------|-----------5-4---|-5-2-2---2-------o|
     |-----------------|-----------------|-----------------|-----------------||
       |_|_|   |_|_|     |_|_|   |   |     |_|_|   |_|_|     |_|_|   |


-----|---------0---2---|-0---2---0-------|---------0---2---|-0---------------|
-----|-2-4-5-----------|-----------5-2---|-2-4-5-----------|---5-2---5-------|
-----|-----------------|-----------------|-----------------|-----------------|
-----|-----------------|-----------------|-----------------|-----------------|
       |_|_|   |   |     |   |   |_|_|     |_|_|   |   |     |_|_|   |


     |---------0---2---|-0---2---0-------|-----------------|-----------------||
     |-2-4-5-----------|-----------5-2---|-5-4-5---0-------|-----------------o|
     |-----------------|-----------------|-----------5-4---|-5-2-2---2-------o|
     |-----------------|-----------------|-----------------|-----------------||
       |_|_|_| |  |     |    |   |_|_|     |_|_|   |_|_|     |_|_|   |


Irish Song/Celtic Tabs & Chords



Irish Song/Celtic Tabs, Tablatures, Chords, Lyrics

Buy Irish Song/Celtic CD
Irish Song/Celtic
Buy Irish Song/Celtic CD

  1. Irish Song/Celtic - Patty Tabs
  2. Irish Song/Celtic - The Swallow Tail Jig (mandolin) Tabs



cowboylyrics.com
All lyrics are property and copyright of their owners. All lyrics provided for educational purposes only.