Jason Matthews, The Slightest Whisper Of You Tabs, Chords, Lyrics

Jason Matthews, The Slightest Whisper Of You Tabs, Chords

 SITE MENU
 Request Tabs
 Add/Correct Tabs
 DMCA Policy
 Country Sheet Music
0

BROWSE LYRICS AND TABS BY ARTIST/BAND NAME: SEARCH HERE:
A B C D E F G H I J K L M N O P Q R S T U V W X Y Z #
 

Jason Matthews - The Slightest Whisper Of You (Chords)


Jason Matthews CD
Jason Matthews Sheet music
Jason Matthews Posters
The Slightest Whisper Of You by Jason Matthews

hope this makes sense!


CAPO 1

Intro

E------------------------------------------------------------
D---------------------------------------------------------1-
G------------------------------------------------------------
D--2-3-2----2-3-2---2-3-2---2-3-2---2-3-2---2-3-2---2-3-2---
A-3--------3-----------------------0-------0-----------------
E------------------3-------3-----------------------1---------


'Parts' for verse

'C' part = D---2-3-2-    'G' part = D---2-3-2-
           A-3-------               A---------
           E---------               E-3-------

'Am' part =D---2-3-2-    'F' part = D---2-3-2- 
           A-0-------               A---------
           E---------               E-1-------


                'C'part x4
A hint of perfume
                  'G'part x4
The brush of your hair
                    'Am'part x4
The mere thought of you
           'F'part x4
Anytime anywhere
               'C'part x4
Drowns out the noise
                       'G'part x4
Of this world and it's pace
                           'Am'part x4
The faintest sound of your voice
                       'F'part x2  then G
Just a glimpse of your face


                         C
The slightest whisper of you
                      Am        G-Am
You don't know how it moves me
                   G         F
The smallest thing you could do
              G
Completely consumes me
             Am
You quiet my soul
              G      F-Dm/F
When you walk in the room
            C
All that it takes 
   G                             (then below)
Is just the slightest whisper of you

E-------------------------------------------
D----------------------------------------1-
G-------------------------------------------
D--2-3-2---2-3-2---2-3-2---2-3-2---2-3-2---
A-3---------------3-------3-------3---------
E---------1---------------------------------

                 'C'part x4
One beat of your heart
                  'G'part x4
The touch of your hand
              'Am'part x4
A kiss in the dark
                    'F'part x2 then G
You just don't understand


                         C
The slightest whisper of you
                      Am        G-Am
You don't know how it moves me
                   G         F
The smallest thing you could do
              G
Completely consumes me
             Am
You quiet my soul
              G      F-Dm/F
When you walk in the room
            C
All that it takes 
   G                             C
Is just the slightest whisper of you

break  Am  G-F  G


             Am
You quiet my soul
              G      F-Dm/F
When you walk in the room
            C
All that it takes 
   G                             (then below)
Is just the slightest whisper of you

E-------------------------------------------
D----------------------------------------1-
G-------------------------------------------
D--2-3-2---2-3-2---2-3-2---2-3-2---2-3-2---
A-3---------------3-------3-------3---------
E---------1--------------------------------- 


Jason Matthews Tabs & Chords



Jason Matthews Tabs, Tablatures, Chords, Lyrics

Buy Jason Matthews CD
Jason Matthews
Buy Jason Matthews CD

  1. Jason Matthews - The Slightest Whisper Of You Chords



cowboylyrics.com
All lyrics are property and copyright of their owners. All lyrics provided for educational purposes only.