, Heart Of The Wood Intro Tabs, Chords, Lyrics
, Heart Of The Wood Intro Tabs, Chords
 SITE MENU
 Request Tabs
 Add/Correct Tabs
 DMCA Policy
 Country Sheet Music
0

BROWSE LYRICS AND TABS BY ARTIST/BAND NAME: SEARCH HERE:
A B C D E F G H I J K L M N O P Q R S T U V W X Y Z #
 

- Heart Of The Wood Intro (Tabs)


CDs
 Sheet music
Posters
Heart of the Wood Intro

Capo on 4

All notes relative to Capo
		   X2	
E|-----------------|
B|-----------------|
G|-----------------|
D|-----------------|
A|---3h5-5r0h2-----|
E|-3-----------5---|

They play this riff, strum through the chords and then repeat the riff again.

For those trying to figure this song out, I believe the chords for the first verse are G, Dsus4/F, 
Cadd9 and D. I'm not 100% sure though.

   G, Dsus4/F, Cadd9, D 

E|-3---3---------3----2----|
B|-3---3---------3----3----|
G|-0---0---------0----2----|
D|-0---0---------2----0----|
A|-2---0---------3----X----|
E|-3---2---------X----X----|


Joey & Rory Tabs & Chords



Joey & Rory Tabs, Tablatures, Chords, Lyrics

Buy Joey & Rory CD
Joey & Rory
Buy Joey & Rory CD

  1. Joey & Rory - Cheater, Cheater Chords
  2. Joey & Rory - Heart Of The Wood Intro Tabs
  3. Joey & Rory - Let It Snow (somewhere Else) Chords
  4. Joey & Rory - Tonight, Cowboy You're Mine Chords



cowboylyrics.com
All lyrics are property and copyright of their owners. All lyrics provided for educational purposes only.