Johnny Hiland, G Wiz (complete) Tabs, Chords, Lyrics

Johnny Hiland, G Wiz (complete) Tabs, Chords

 SITE MENU
 Request Tabs
 Add/Correct Tabs
 DMCA Policy
 Country Sheet Music
0

BROWSE LYRICS AND TABS BY ARTIST/BAND NAME: SEARCH HERE:
A B C D E F G H I J K L M N O P Q R S T U V W X Y Z #
 

Johnny Hiland - G Wiz (complete) (Tabs)


Johnny Hiland CD
Johnny Hiland Sheet music
Johnny Hiland Posters
Johnny Hiland: G Wiz


9/6/06

Tune High E string down to d and blast off !

Enjoy~Cal


D---------------------------0-----------------------------------0-------
B-------------------0----10---10h12---------------------0----10---12/15-
G-----------0----10---12------------------------0----10---12------------
D-0------10---12--------------------0------0-10---12--------------------
A---8-10---------------------------------8------------------------------
E-------------------------------------10--------------------------------


D---------------------------0-------0-0--------0--------0-0--0-0-
B-------------------0----10---10h12---12b13r12-10h12p10-8-10-7-8-
G-----------0----10---12-----------------------------------------
D------0-10---12-------------------------------------------------
A----8-----------------------------------------------------------
E-10-------------------------------------------------------------


D----------------------------0-----------------------------------0-------
B--------------------0----10---10h12---------------------0----10---12/15-
G------------0----10---12------------------------0----10---12------------
D---------10---12--------------------0------0-10---12--------------------
A----8-12---------------------------------8------------------------------
E-10-----------------------------------10--------------------------------


D---------------------------0-------0-0--------0--------0-0--0-0-
B-------------------0----10---10h12---12b13r12-10h12p10-8-10-7-8-
G-----------0----10---12-----------------------------------------
D------0-10---12-------------------------------------------------
A----8-----------------------------------------------------------
E-10-------------------------------------------------------------


D------------------------------------------------------------------------
B-0-1-2-3-5-6-7-8-10-8-6-5-------------------0-3p0-1p0-----------0-------
G-0-2-3-4-5-7-8-9-10-9-7-5-0-----------0---0-----------2-0-----0---3p1p0-
D--------------------------------0---3---3-----------------2p0-----------
A----------------------------1h2---5-------------------------------------
E------------------------------------------------------------------------


D--------------------------------------------7-----6-----5---------------
B-----------------0-1-2-3-5-6-7-8-10-8-6-5/7---8r7---7r6---6r5-----------
G-----2/4b5r4b5r4-0-2-3-4-5-7-8-9-10-9-7-5---------------------7-5b6r5---
D-2-0--------------------------------------------------------------------
A------------------------------------------------------------------------
E------------------------------------------------------------------------

D-------------------12\--0-0-0-------------------0---0-0-----------------
B-------------------12\--8-7-6-5-6p5-4\3---3-----6/8-7-6-5-6p5-4\3---5---
G---5-------0----------------------------0-3h4---------------------0-5---
D-7---7-6-5---3h4------------------------------5-------------------------
A-----------------5------------------------------------------------------
E------------------------------------------------------------------------


D-0---0-0-------------------------------------------------0---0-0--------
B-6/8-7-6-5-6p5-4\3---3-----------------------------------6/8-7-6-5-6p5--
G-------------------5---5b7r5p3-5-4-3p0---0------------------------------
D---------------------------------------5---3p0---0----------------------
A-----------------------------------------------3---1h2------------------
E-------------------------------------------------------3----------------

D-------------0---0-0---------------0---0-0------------------------------
B-4\3---------6/8-7-6-5-6p5-4\3---5-6/8-7-6-5-6p5-4\3---3----------------
G-----0-3b4---------------------0-5-------------------5---5b7r5p3-5-4-3p0
D-----------5------------------------------------------------------------
A------------------------------------------------------------------------
E------------------------------------------------------------------------


D-----------------------------5-----5------------9----7----5----4--------
B---------------------------5-----5----6-5-3-1/8---8----6----5----3---6--
G---0---------------------5-----5----0---0-0-0-------7----5----4----4----
D-5---3p0---0-----------5------------------------------------------------
A---------3---1h2---1/3--------------------------------------------------
E-----------------3------------------------------------------------------


D-------------------------------------------5-----5--------------7-------
B-----------5---3-------------------5---5-------5-----6-5-3-1/8----8r7---
G-6p5p4\3---5---3h4-----------------5-5---5---5-----0---0-0-0------------
D---------5---5-----5-3-5b7r5-3h4h5--------------------------------------
A------------------------------------------------------------------------
E------------------------------------------------------------------------


D-6-----5---------------------------------0---0-0-------------------0---0
B---7r6---6r5-----------------------------6/8-7-6-5-6p5-4\3---------6/8-7
G-------------7---5b6r5---5-------0-------------------------0-3b4--------
D---------------7-------7---7-6-5---3h4---------------------------5------
A---------------------------------------5--------------------------------
E------------------------------------------------------------------------

D-0---------------0---0-0------------------------------------------------
B-6-5-6p5-4\3---5-6/8-7-6-5-6p5-4\3---3----------------------------------
G-------------0-5-------------------5---5b7r5p3-5-4-3p0---0--------------
D-------------------------------------------------------5---3p0---0------
A---------------------------------------------------------------3---1h2--
E-----------------------------------------------------------------------3


D-0---0-0-------------------0---0-0---------------0---0-0----------------
B-6/8-7-6-5-6p5-4\3---------6/8-7-6-5-6p5-4\3---5-6/8-7-6-5-6p5-4\3---3--
G-------------------0-3b4---------------------0-5-------------------5----
D-------------------------5----------------------------------------------
A------------------------------------------------------------------------
E------------------------------------------------------------------------

D------------------------------------------------------------------------
B------------------------------------------------------------------------
G-5b7r5p3-5-4-3p0---0----------------------0-----0-----------0-------4r3-
D-----------------5---3p0---0------------0---3p0---3/5-----0---3p0-3-----
A-------------------------3---1h2------2-----------------2---------------
E---------------------------------3--3-----------------3-----------------


D------------------------------------------------------------------------
B--------------------3-3h6p3-----6---------3----------0-1-2-3-5-6-7-8-10-
G-------0-----0--5b7---------5b7---7r5p3---3h4--------0-2-3-4-5-7-8-9-10-
D-----0---3p0----------------------------5-----5/12\---------------------
A---2--------------------------------------------------------------------
E-3----------------------------------------------------------------------

          Harmonics                    Pull up on whammy
D------------------------------------------------------------------------
B-8-6-5-----------5-7------------------------------------------------
G-9-7-5-0-----5---------------------5--------------------------------
D---------5-------------7-----5------------------------------------
A-----------------------------X----------------------------------------
E------------------------------------------------------------------------


D--------------------------------------------------7p4---4-7-7-4-----7---
B-0-1-2-3-5-6-7-8-10-8-6-5-11p10-10-10-11p10-10-10-----6---------6-7---6-
G-0-2-3-4-5-7-8-9-10-9-7-5-----------------------------------------------
D------------------------------------------------------------------------
A------------------------------------------------------------------------
E------------------------------------------------------------------------

D-----------------------------------------------12p10-------10-----------
B-5-3---5--3b5r3b5r3\--0-1-2-3-5-6-7-8-10-8-6-5-------12-10----12p10-----
G-----4---4------------0-2-3-4-5-7-8-9-10-9-7-5----------------------12--
D------------------------------------------------------------------------
A------------------------------------------------------------------------
E------------------------------------------------------------------------


D---10-------------------------------------------------------------------
B10----12-10----10---------------------------------------0-1-2-3-5-6-7-8-
G------------12----12-11-10----0----10b12----10b12r10b12-0-2-3-4-5-7-8-9-
D---------------------------12---12-------12-----------------------------
A------------------------------------------------------------------------
E------------------------------------------------------------------------

D----------10p7------7-7-------7-----------5------------------------6----
B-10-8-6-5------10p7-----7\6/7---6p5\3---3---3-5-3-3---3----3-4-5-6-6----
G-10-9-7-5-----------------------------4-------------4---0--4-5-6-7------
D------------------------------------------------------------------------
A------------------------------------------------------------------------
E------------------------------------------------------------------------


D-------6---------6--------------------------6-8p7p6-------8p7p6---------
B----------------------------8-7/8---8p6---6---------8p7p6-------8p7p6---
G-8bh10---10r8b10---10r8p6---8-7/8---8p6---6-----------------------------
D--------------------------8-------8-----8-------------------------------
A------------------------------------------------------------------------
E------------------------------------------------------------------------


D-8p7p6-------6-------8-7------------------------------------------------
B-------8p7p6---8bh10-----10r8-6-8-8p6---6------6-9----9-----9----6---8--
G--------------------------------------7---8b10---8b10-8bh10-10r8-6---8--
D-------------------------------------------------------------------8---8
A------------------------------------------------------------------------
E------------------------------------------------------------------------


D----------------------------------6-------------------------------------
B-6/8---8\6---8-----------6------6-----6------------6-8-9p8-6---6------6-
G-6/8---8\6---8---6-8p6---6-8b10-----8---8b10r8p6-8-----------8---8b10---
D-----8-----8---8-------8------------------------------------------------
A------------------------------------------------------------------------
E------------------------------------------------------------------------

D-6-------------------------------------
B-------6---------8---6-----------------
G--8b10---9-8-6---8---6h7---------------
D---------------8---8-----8-5-6-7-8----- Bass Solo Then
A---------------------------------------
E---------------------------------------


D-----6---6-------6---6-------6---6-8p6---6------------------------------
B-6h8---8---8-6h8---8---8-6h8---8-------8---8-7-6---6--------------------
G-------------------------------------------------8---8-7-6---8---6h7---0
D-----------------------------------------------------------8---7-----8--
G------------------------------------------------------------------------
D------------------------------------------------------------------------

D------------------------------------------------------------------------
B-------------------------6-8b10r8-6---6-8p6---6-6-----------------------
G-----3---5b7r5-3---3-5/7------------7-------7---8b10r8p6-8-0-6-7--------
D-3h5---5---------5-----------------------------------------------8------
A------------------------------------------------------------------------
E------------------------------------------------------------------------


Sax Solo


D------------------------------------------------------------------------
B-15-15-13-15p13-15-15-13-15p13-8-8-6-8p6-8-8-6-8---3-3-3----3---3-3-----
G-15-15-13-15p13-15-15-13-15p13-8-8-6-8p6-8-8-6-8---2-2-2bh4-4r2-0-2-----
D-------------------------------------------------0------------------3b4-
G------------------------------------------------------------------------
D------------------------------------------------------------------------


D------------------------------------------------------------------------
B---3-3-3---5b7r5p3-5---3/----0-1-2-3-5-6-7-8-10-8-6-5-----------5-x-
G---2-2-3-0-----------4-------0-2-3-4-5-7-8-9-10-9-7-5-0-----5---------
D-0------------------------0-----------------------------5-------------
A------------------------------------------------------------------------
E------------------------------------------------------------------------

        Pull up on whammy
D--------------------------------------------------9p7------7-7-------7--
B-------------------------0-1-2-3-5-6-7-8-10-8-6-5-----10p7-----7p5-7----
G-------5---------------0-2-3-4-5-7-8-9-10-9-7-5-----------------------
D-7-0------------------------------------------------------------------
A------------------------------------------------------------------------
E------------------------------------------------------------------------

D------------------------------------------------------------9----7------
B-6p5-------------------------------0-1-2-3-5-6-7-8-10-8-6-5---8----6----
G-----7-4-7p5---5-------0-----7r5-0-0-2-3-4-5-7-8-9-10-9-7-5-----7----5--
D-------------7---5-4-5---3-4--------------------------------------------
A------------------------------------------------------------------------
E------------------------------------------------------------------------


D-9-----7-----5----------------------------------------------------------
B---8-----6-----6-----------5---3-------------0-1-2-3-5-6-7-8-10-8-6-5---
G-----7-----5-----4-7\5p3---5---3h4-----------0-2-3-4-5-7-8-9-10-9-7-5---
D-------------------------5---5-----5-3-5/12\----------------------------
A------------------------------------------------------------------------
E------------------------------------------------------------------------

D-7-----6-----5----------------------------------------------------------
B---8r7---7r6---6r5-3----------------------------------------------------
G-----------------------5b7r5---5-------0--------------------------------
D---------------------5-------7---7-6-5---3h4----------------------------
A---------------------------------------------5--------------------------
E------------------------------------------------------------------------


D---------------------------0-----------------------------------0-------
B-------------------0----10---10h12---------------------0----10---12/15-
G-----------0----10---12------------------------0----10---12------------
D-0------10---12--------------------0------0-10---12--------------------
A---8-10---------------------------------8------------------------------
E-------------------------------------10--------------------------------


D---------------------------0-------0-0--------0--------0-0--0-0-
B-------------------0----10---10h12---12b13r12-10h12p10-8-10-7-8-
G-----------0----10---12-----------------------------------------
D------0-10---12-------------------------------------------------
A----8-----------------------------------------------------------
E-10-------------------------------------------------------------


D----------------------------0-----------------------------------0-------
B--------------------0----10---10h12---------------------0----10---12/15-
G------------0----10---12------------------------0----10---12------------
D---------10---12--------------------0------0-10---12--------------------
A----8-12---------------------------------8------------------------------
E-10-----------------------------------10--------------------------------


D---------------------------0-------0-0--------0--------0-0--0-0-
B-------------------0----10---10h12---12b13r12-10h12p10-8-10-7-8-
G-----------0----10---12-----------------------------------------
D------0-10---12-------------------------------------------------
A----8-----------------------------------------------------------
E-10-------------------------------------------------------------

D-0-0-0-------------------0-0-0---------------0-0-0-----5p4p3-------5p4p3-
B-8-7-6-5-6p5-4\3---------8-7-6-5-6p5-4\3---5-8-7-6-5-6-------5p4p3-------
G-----------------0-3b4-------------------0-5-----------------------------
D-----------------------5-------------------------------------------------
A-------------------------------------------------------------------------
E-------------------------------------------------------------------------


D---3-----------------------------0-0-0-------------------0-0-0-----------
B-5---5-4-3---3-----------3-------8-7-6-5-6p5-4\3---------8-7-6-5-6p5-4\3-
G-----------5---5b7r5p3-5---3h4-------------------0-3b4-------------------
D-------------------------------5-----------------------5-----------------
A-------------------------------------------------------------------------
E-------------------------------------------------------------------------

D-----0-0-0-------------------------------------------------0-0-0-0-5-3---
B---5-8-7-6-5-6p5-4\3---3-----------3-----------------------0-3-6-8-----5-
G-0-5-----------------5---5b7r7p3-5---3p0---0---------------0-4-7-7-------
D-----------------------------------------5---3p0---0---------------------
A-------------------------------------------------3---1h2-----------------
E---------------------------------------------------------3---------------

D---3---------------------------------------------------------------------
B-3---5-3---3---------------3-5-6p5-3---3-6-5-3---6-3-----5---3-----------
G---------5---3b4-------3h4-----------5---------5-----5---5---3p0---0-----
D-----------------5---5---------------------------------5---5-----5---3p0-
A-------------------------------------------------------------------------
E-------------------------------------------------------------------------

                         Pull up on whammy
D-------------------------------------------------
B-------------------------------------------------
G-----------------------5-----------------------
D---3---0-----------5-------------------------5-
A-3---3---1b2---5-----------------------------5-
E-------------3---------------------------------3-



Johnny Hiland Tabs & Chords



Johnny Hiland Tabs, Tablatures, Chords, Lyrics

Buy Johnny Hiland CD
Johnny Hiland
Buy Johnny Hiland CD

  1. Johnny Hiland - G Wiz (complete) Tabs
  2. Johnny Hiland - Gatton To It Tabs
  3. Johnny Hiland - Orange Blossom Special(part 2) Tabs
  4. Johnny Hiland - Orange Blossom Special(part 3) Tabs
  5. Johnny Hiland - Tonal Emersion (lead Guitar) Tabs



cowboylyrics.com
All lyrics are property and copyright of their owners. All lyrics provided for educational purposes only.