Johnny Hiland, Gatton To It Tabs, Chords, Lyrics

Johnny Hiland, Gatton To It Tabs, Chords

 SITE MENU
 Request Tabs
 Add/Correct Tabs
 DMCA Policy
 Country Sheet Music
0

BROWSE LYRICS AND TABS BY ARTIST/BAND NAME: SEARCH HERE:
A B C D E F G H I J K L M N O P Q R S T U V W X Y Z #
 

Johnny Hiland - Gatton To It (Tabs)


Johnny Hiland CD
Johnny Hiland Sheet music
Johnny Hiland Posters
Johnny Hiland:Gatton To It


There are tons of wicked cool licks in this piece. Practice
slow at first and work up to speed. This one will melt your friend's
faces. Enjoy~Cal


E-------------10--------8--------------------------------------------
B-------------10---------------10--------7-5-5---------4-3-2-2-----2-
G--------7-9-----9b(11)---(11)----(11)r9-7-6-6b(7)r6p0-5-4-2-2p0---2-
D-7-9-11---------------------------------------------------------4---
A--------------------------------------------------------------------
E--------------------------------------------------------------------


E----------------------------------------------------------------10--
B-3-----3-3--3----3-----3-3---2----------------------------------10--
G-4b(6)-4-4-(6)r4-4b(6)-4-4---2---0h1------------------------7-9-----
D---------------------------2---2-----2-0-------------7-9-11---------
A-----------------------------------------2-0------------------------
E---------------------------------------------3b(4)-0----------------


E--------8-----------------------------------------------------------
B---------------10--------7-5-5---------4-3-2-2-----2-3-4-4----------
G-9b(11)---(11)----(11)r9-7-6-6b(7)r6p0-5-4-2-2p0---2-3-4-4----------
D-------------------------------------------------4---------7p4h7----
A--------------------------------------------------------------------
E--------------------------------------------------------------------


E-----------------------------------------------0-----0-0---0-3p2p0--
B-4---4-------4-4-4\2---2-------------4-----4-4---2p0-----2----------
G-4---4-------4-4-4\2---2-------------4-----4-4----------------------
D---7---7p4h7---------4---4-3-2---------6p4--------------------------
A-------------------------------4-5-6--------------------------------
E--------------------------------------------------------------------


E-----3/4-3/4-0-----0-0---0-3p2p0---0---0-----0-----0-0---0-3p2p0----
B-2p0-----------2p0-----2---------3---0---3/5---2p0-----2---------2p0
G-----3/4-3/4--------------------------------------------------------
D--------------------------------------------------------------------
A--------------------------------------------------------------------
E--------------------------------------------------------------------

                                              Bend behind nut
E-3/4-0-----3p2p0---------0---0-----0---------0-------0--------------
B-------2p0-------2p0-3/5---5---1h2---2p1p0--------------------------
G-3/4---------------------------------------2---0b(2)---(2)r0--------
D--------------------------------------------------------------(2)r0-
A--------------------------------------------------------------------
E--------------------------------------------------------------------


E-------------------------0-----0-0---0-3p2p0-----3/4-3/4-0-----3p2p0
B---------------------------2p0-----2---------2p0-----------2p0------
G-----4---0h2p0---0-------------------------------3/4-3/4------------
D---------------4---4-3-2--------------------------------------------
A-3h4---4------------------------------------------------------------
E--------------------------------------------------------------------


E-----0-----0---0---------0-2-------0---------0---------0-3p2p0---0--
B-2p0---3/5---5---5-3b(5)-----3b(5)---3b(5)-0---3p0-3/5---------3---3
G--------------------------------------------------------------------
D--------------------------------------------------------------------
A--------------------------------------------------------------------
E--------------------------------------------------------------------


E----------------------0---------------------------------------12\---
B-2p0---2p02p0-----------3-0-----------------------------------12\---
G-----3--------3\2p0---------3-2p0---2---0h1-------------------------
D--------------------2-------------2---2-----2-0---------------------
A------------------------------------------------2-1-0---------------
E------------------------------------------------------3-2-1-0-------


E-0-----0-0---0-3p2p0-----3/4-3/4-0-----0-0---0-3p2p0---0-0-----0----
B---2p0-----2---------2p0-----------2p0-----2---------2-----3/5---2p0
G-------------------------3/4-3/4------------------------------------
D--------------------------------------------------------------------
A--------------------------------------------------------------------
E--------------------------------------------------------------------


E-0-0---0-3p2p0-----3/4-3/4-0-----3p2p0-----0-----0---0---0----------
B-----2---------2p0-----------2p0-------2p0---3/5---5---3---2h3p2---2
G-------------------3/4-3/4---------------------------------------4--
D--------------------------------------------------------------------
A--------------------------------------------------------------------
E--------------------------------------------------------------------


E--------------------------------------------------------------------
B---------------------------------------------------------------0-2h3
G-4-3-2-------2b(4)-(4)r2-0h2p0---0-----------------------0-2h4------
D-------4b(5)-------(5)r4-------4---4-3-2---2-------0-2h4------------
A-----------------------------------------4---0-2h4------------------
E--------------------------------------------------------------------


E-0-------0---------7-----5---------0---------0-2-------0---------0--
B---3b(5)---7-7b(9)---(9)---(9)r7-5---0-3b(5)-----3b(5)---3b(5)-0----
G--------------------------------------------------------------------
D--------------------------------------------------------------------
A--------------------------------------------------------------------
E--------------------------------------------------------------------


E-----3p2p0---0---------------------------------0--------------------
B-2p0-------3---3-2p0---2p0-2p0-------------------3-0---------2---0-0
G---------------------3---------3\2p0---2-0h1---------3-2-0---2---0-1
D-------------------------------------2-------2-------------2---1----
A--------------------------------------------------------------------
E--------------------------------------------------------------------


E----------------------------------10--------8-----------------------
B----------------------------------10---------------10--------7------
G------------------------------7-9----9b(11)---(11)----(11)r9-7------
D-2-0-----------2-----2-7-9-11---------------------------------------
A-----2-1-0-------4p2------------------------------------------------
E-----------3h4------------------------------------------------------


E--------------------------------------------------------------------
B-5---------4-3-2-2------2-3-----3-3--3----3-----3-3---2-------------
G-6b(7)r6p0-5-4-2-2p0----2-4b(6)-4-4-(6)r4-4b(6)-4-4---2-0h1---------
D----------------------4-----------------------------2-------2-0-----
A----------------------------------------------------------------2-0-
E--------------------------------------------------------------------


E--------------------10--------8-------------------------------------
B--------------------10---------------10--------5-5---------4-3-2-2--
G----------------7-9----9b(11)---(11)----(11)r9-6-6b(7)r6p0-5-4-2-2p0
D-------2-7-9-11-----------------------------------------------------
A--------------------------------------------------------------------
E-3b(4)--------------------------------------------------------------


E-------------7-------------7-----------7----------------------------
B-2-3-4-5-6/7---9p7-10b(12)---10p7----7---10p7----------9---7--------
G-2-3-4-6-7/8----------------------10----------10\9p7---9---7h8-8-7/8
D-----------------------------------------------------9---9-----9-8/9
A--------------------------------------------------------------------
E--------------------------------------------------------------------


E----------------------------------------0---------------------------
B---------------------10-10p8----8-8\7-----7-7b(8)r7p5---7---5-------
G-8-7-6--------9-11p9--9--9---10-9-----8---7-7b(8)r7p5---7---5h6-----
D-9-8-7-7-9/11-----------------------------------------7---7-----7---
A--------------------------------------------------------------------
E--------------------------------------------------------------------


E---------------------------------------------------------------------
B-12----------14----15----14-12----------14----15----14-12----------15
G-12h13p12----14----16----14-12h13p12----14----16----14-12h13p12----16
D----------14----14----14-------------14----14----14-------------14---
A---------------------------------------------------------------------
E---------------------------------------------------------------------


E----------------------12-
B----14-12-12----------12-
G----14-12-13-------------
D-14----------14-12-14----
A-------------------------
E-------------------------



E-12-12h14p12-11h13p11-10h12p10-9h11p9-8h10p8-7h9p7-6h8p6-5---5------
B-12-12h14p12-11h13p11-10h12p10-9h11p9-8h10p8-7h9p7-6h8p6-5-5---8b(10)
G--------------------------------------------------------------------
D--------------------------------------------------------------------
A--------------------------------------------------------------------
E--------------------------------------------------------------------


E-5---5-7---5---------------------7-5--------------------------------
B---8-----8---8-7-5---7---5-7b(9)-----(9)r7-5h7p5\4---5-4---------2--
G-------------------7---7---------------------------6-----6-5-4---2--
D---------------------------------------------------------------4---4
A--------------------------------------------------------------------
E--------------------------------------------------------------------


E-------------------3---------3---------3---------3---------3-----0--
B-------2-2-0-2b(3)---0-2b(3)---0-2b(3)---0-2b(3)---0-2b(3)---1h2----
G-------2-2----------------------------------------------------------
D-3-2-1-1-1----------------------------------------------------------
A--------------------------------------------------------------------
E--------------------------------------------------------------------


E---------0-------0-------0---5-----4-3/4-0---0---0---------0--------
B-2p1p0---------0---3p0-----------0---------5---3--------------------
G-------2---2/4---------4---4---4-------------------3\2p0-2---0h1----
D-----------------------------------------------------------------2--
A--------------------------------------------------------------------
E--------------------------------------------------------------------


E-------------7---------------------------------0-------0------0-----0
B-3/4-4-5-6/7-7---9-7-----7b(8)r7p5-7---5---------7-8h9---9-4h5--4h5-
G-3/4-4-6-7/8-----9-7h8---------------6---7b(9)----------------------
D---------------9-------7--------------------------------------------
A--------------------------------------------------------------------
E--------------------------------------------------------------------


E-----0-----0------0---------0---------0-----------------------------
B-5-7---7-9---9-10---10b(11)---11b(12)---11b(12)--------12-14b(15)---
G-------------------------------------------------12-13--------------
D--------------------------------------------------------------------
A--------------------------------------------------------------------
E--------------------------------------------------------------------


E------------------------------------------14-17-15-16---------------
B-(15)r14p12----12-------------------12-15-------------17-15---------
G------------14----12h13----------13-------------------------16\14p12
D------------------------14-12-14------------------------------------
A--------------------------------------------------------------------
E--------------------------------------------------------------------


E--------------------------------------------------------------------
B------------------------12----------14----15----14-12----------14---
G-14-0-12-13----12-------12h13p12----14----16----14-12h13p12----14---
D------------14----13-12----------14----14----14-------------14----14
A--------------------------------------------------------------------
E--------------------------------------------------------------------


E--------------------------------------------------------------10----
B-15----14-12----------14----15----14--12----------14----12----10b(12)
G-16----14-12h13p12----14----16----14--12h13p12----14----12h13-------
D----14-------------14----14----14--------------14----14-------------
A--------------------------------------------------------------------
E--------------------------------------------------------------------


E-10--10-----10------10--10-----7--7-----6--6----5--5----4-0-3-4-----
B-10-(12)r10-10b(12)-10-(12)r10-9-(10)r9-8-(9)r8-7-(8)r7-5-0-4-5-----
G--------------------------------------------------------------------
D--------------------------------------------------------------------
A--------------------------------------------------------------------
E--------------------------------------------------------------------


E-------7---------7-----------7--------------------------------------
B-----7---10b(12)---10p7----7---10p7----------7--------5-7p5-7b(8)-7p5
G-7h8--------------------10----------10\9p7---7h8--5/6---------------
D-------------------------------------------9------------------------
A--------------------------------------------------------------------
E--------------------------------------------------------------------


E---------------7-9-8-7-0-6-0-5-0-3-4-------0------------------------
B-7-7p5---5-7/9-----------------------5-0h3-----------0--------------
G-------6-------------------------------------3\2p0-2---0h1---0------
D-----------------------------------------------------------2---0-1-2
A--------------------------------------------------------------------
E--------------------------------------------------------------------


E-0-----0-0---0-3p2p0-----3/4-3/4-0-----0-0---0-3p2p0---0-0-----0----
B---2p0-----2---------2p0-----------2p0-----2---------2-----3/5---2p0
G-------------------------3/4-3/4------------------------------------
D--------------------------------------------------------------------
A--------------------------------------------------------------------
E--------------------------------------------------------------------


E-0-0---0-3p2p0-----3/4-3/4-0-----3p2p0-----0-----0---0-----0--------
B-----2---------2p0-----------2p0-------2p0---3/5---5---1h2---2p1p0--
G-------------------3/4-3/4-----------------------------------------2
D--------------------------------------------------------------------
A--------------------------------------------------------------------
E--------------------------------------------------------------------


E-0-----0-----0-----0------------------------------------------------
B-------------------------0-----0-----0-----0--3------3------2-------
G---0h2---0h2-------------0-----0-----0-----0--4b(6)-(6)r4---2---0h1-
D---------------2h4---2h4---2h4---2h4---2h4----------------2---2-----
A--------------------------------------------------------------------
E--------------------------------------------------------------------


E---0-3p2p0---0------------------------------------------------------
B-----------3---3-2p0---2p0-2p0---0---------------------------3b(4)-0
G---------------------3---------3---3\2p0---2-0h1-------------2-----2
D-2---------------------------------------2-------2-0-2--------------
A-------------------------------------------------------0-1-2--------
E--------------------------------------------------------------------


E---------0-3b(4)-0---------------------------0----------------------
B-3b(4)-0-----------3-0-------------------------3-0---------2---0----
G-2-----2---------------3-2-0---2---0h1-------------3-2p0---2---0h1--
D-----------------------------2---2-----2-0-2-------------2---2-----2
A--------------------------------------------------------------------
E--------------------------------------------------------------------


E----------------------0-----0-0---0-3p2p0-----3/4-3/4-0-----0-0---0-
B------------------------2p0-----2---------2p0-----------2p0-----2---
G----------------------------------------------3/4-3/4---------------
D-0---0--------------------------------------------------------------
A---2---2-1-0--------------------------------------------------------
E-------------3-2-1-0------------------------------------------------


E-3p2p0---0-0-----0-----0-0---0-3p2p0-----3/4-3/4-0-----3p2p0-----0-0
B-------2-----3/5---2p0-----2---------2p0-----------2p0-------2p0----
G-----------------------------------------3/4-3/4--------------------
D--------------------------------------------------------------------
A--------------------------------------------------------------------
E--------------------------------------------------------------------


E-----0---0----0---0-------0-0-------0-0---0-------------------------
B-3/5---5----5---5---4/5-5-----3b(4)-----2---2h3p2---2---------2-----
G--------------------------------------------------4---4-3-2---2-0---
D------------------------------------------------------------4-----4-
A--------------------------------------------------------------------
E--------------------------------------------------------------------


E---------------0-----0-0---0-3p2p0-----3/4-3/4-0-----3p2p0-----0----
B-0---------------2p0-----2---------2p0-----------2p0-------2p0------
G-0-------------------------------------3/4-3/4----------------------
D---4-3-2/-----------------------------------------------------------
A--------------------------------------------------------------------
E----------12\-------------------------------------------------------


E-----0---0---------0-2-------0-------0---------0---------0-3p2p0---0
B-3/5---5---5-3b(5)-----3b(5)---3b(5)---3b(5)-0---3p0-3/5---------3--
G--------------------------------------------------------------------
D--------------------------------------------------------------------
A--------------------------------------------------------------------
E--------------------------------------------------------------------


E--------------------------------------------------------------------
B-3-2p0---2---2p0---0------------------------------------------------
G-------3---3-----3---3\2p0---2-0h1---------------------------4-6p4--
D---------------------------2-------2-0---------------2-4-5h6--------
A---------------------------------------2-1-0-----2-4----------------
E---------------------------------------------3h4--------------------


E-----------------------10--------8----------------------------------
B-5---7---5-------------10---------------10--------7-5-5---------4-3-
G-4-6---6----------7-9-----9b(11)---(11)----(11)r9-7-6-6b(7)r6p0-5-4-
D-----------7-9-11---------------------------------------------------
A--------------------------------------------------------------------
E--------------------------------------------------------------------


E--------------------------------------------------------------------
B-2-2-----2-3-----3--3----3-3--3------3---2--------------------------
G-2-2p0---2-4b(6)-4-(6)r4-4-4-(6)r4---4---2---0h1--------------------
D-------4---------------------------2---2---2-----2-0--------------7-
A-----------------------------------------------------2-1-0-----2----
E-----------------------------------------------------------3h4------



E----------10--------8-----------------------------------------------
B----------10---------------10--------7-5-5---------4-3-2-2-----2-3-4
G------7-9----9b(11)---(11)----(11)r9-7-6-6b(7)r6p0-5-4-2-2p0---2-3-4
D-9-11--------------------------------------------------------4------
A--------------------------------------------------------------------
E--------------------------------------------------------------------


E-------------7-----------7------------------------10--------8-------
B-----5-6-7---7-9-7-------7-9-7--------------------10---------------10
G-----6-7-8-----9-7h8p7-----9-7h8---------------------9b(11)---(11)--
D-4/6-------9-----------7---------9-7--------------------------------
A-------------------------------------9-8-7-6-7-6--------------------
E--------------------------------------------------------------------


E----------------------------------------0-----0-----0-----0---------
B--------7-5-5---------4-3-2-2-----2-3/4-------------------------0---
G-(11)r9-7-6-6b(7)r6p0-5-4-2-2p0---2-3/4---3/4---3/4---3/4---3-4-----
D--------------------------------4-----------------------------------
A--------------------------------------------------------------------
E--------------------------------------------------------------------


E---------0----------------------------------------------------------
B-------------------------------------------------4---4-5-6-7-4/5-5--
G-3\2p0-2---0-1-----------------------------------4---4-6-7-8-5/6-6--
D---------------2-0-----------2---2-----------4-6---6----------------
A-------------------2-1-0-------4---4-3-2-5h6------------------------
E-------------------------3h4----------------------------------------


E----------------7-12-11-10---0-------0-3b(4)-0------0-------0-0-----
B-5-7p5-5-3-2--9-9-14-13-12---0---0h2-----------3-0------------------
G-6-7p6-6-4-2--9--------------1----------------------2/3\2p0-2-0h1---
D-----------------------------2------------------------------------2-
E--------------------------------------------------------------------


E-----------------------------------------------------------
B-----------------------------------------------------------
G-----------------------------------------------------------
D-0---------------0h2p0-keep triling this without picking---
A---2-1-0---------------------------------------------------
E---------3b(4)-0-------------------------------------------




Johnny Hiland Tabs & Chords



Johnny Hiland Tabs, Tablatures, Chords, Lyrics

Buy Johnny Hiland CD
Johnny Hiland
Buy Johnny Hiland CD

  1. Johnny Hiland - G Wiz (complete) Tabs
  2. Johnny Hiland - Gatton To It Tabs
  3. Johnny Hiland - Orange Blossom Special(part 2) Tabs
  4. Johnny Hiland - Orange Blossom Special(part 3) Tabs
  5. Johnny Hiland - Tonal Emersion (lead Guitar) Tabs



cowboylyrics.com
All lyrics are property and copyright of their owners. All lyrics provided for educational purposes only.