Johnny Hiland, Orange Blossom Special(part 2) Tabs, Chords, Lyrics

Johnny Hiland, Orange Blossom Special(part 2) Tabs, Chords

 SITE MENU
 Request Tabs
 Add/Correct Tabs
 DMCA Policy
 Country Sheet Music
0

BROWSE LYRICS AND TABS BY ARTIST/BAND NAME: SEARCH HERE:
A B C D E F G H I J K L M N O P Q R S T U V W X Y Z #
 

Johnny Hiland - Orange Blossom Special(part 2) (Tabs)


Johnny Hiland CD
Johnny Hiland Sheet music
Johnny Hiland Posters
Johnny Hiland:Orange Blossom Special(Part 2)
47:07-111.89

Best of luck all. This is a tough section ~Cal

E----------------------------------------------------------
B-------------------------------------------9---10---9-10p9
G------------------9------------9---11b(13)----------------
D-------------9-11---11-10-9-11---9-----------11---11------
A-5/7-7-10h11----------------------------------------------
E----------------------------------------------------------


E------10p9----9-10p9---9----------------------------------
B----9------12--------12--12-9---9-12-9----9---------------
G-11---------------------------12-------12---12-11-9----9--
D----------------------------------------------------11----
A----------------------------------------------------------
E----------------------------------------------------------

E----------------------------------------------------------
B---------9---10----9-10p9----10----9-10p9----9------------
G-11b(13)------------------11----11--------11---11-9----9\7
D-----------11---11----------------------------------11----
A----------------------------------------------------------
E----------------------------------------------------------


E-------------0--------------------------------------------
B-0--------9-------------------------9----10---9-10p9------
G---(9)r7--------7/9b(11)r9--11b(13)------------------11---
D--------------------------------------11----11------------
A----------------------------------------------------------
E----------------------------------------------------------

E----------------------------------------------------------
B-10----9-10p9----9----------9-----------------------------
G----11--------11---11b(13)h---(13)r11-9-11-11p9----9-11-9-
D------------------------------------------------11--------
A----------------------------------------------------------
E----------------------------------------------------------


E-----------------------12----------12-12----------14p12---
B-----------------12-14----15b(17)h-------(17)r15--------15
G----9----9-11/13------------------------------------------
D-11---11--------------------------------------------------
A----------------------------------------------------------
E----------------------------------------------------------

E-14p12----14----12-14-12----14----12----16----12-16-12----
B-------16----15----------15----15----12----12----------15-
G----------------------------------------------------------
D----------------------------------------------------------
A----------------------------------------------------------
E----------------------------------------------------------


E-16--12-16-12----16----12-----14----12-14-12----14----12--
B--------------15----15----12-----15----------15----15-----
G----------------------------------------------------------
D----------------------------------------------------------
A----------------------------------------------------------
E----------------------------------------------------------

E-14-12----14----12----16---12-16-12----16--12-16-12----16-
B-------15----15----12---12----------15--------------15----
G----------------------------------------------------------
D----------------------------------------------------------
A----------------------------------------------------------
E----------------------------------------------------------


E----12--17p12----12-16p12----12-14p12----12-16p12----12---
B-12-----------12----------12----------12----------12------
G----------------------------------------------------------
D----------------------------------------------------------
A----------------------------------------------------------
E----------------------------------------------------------

E-17p12----12-16p12----12-14p12----12--12---------12-------
B-------12----------12----------12--------15b(17)----15p12-
G----------------------------------------------------------
D----------------------------------------------------------
A----------------------------------------------------------
E----------------------------------------------------------


E----------------------------------------------------------
B----12----12-15p12----12------------12------------12------
G-15----15----------15----15-14-0-15----15-14-0-15----15-14
D----------------------------------------------------------
A----------------------------------------------------------
E----------------------------------------------------------

E----------------------------------------------------------
B-------14----12-12----------------------------------------
G-12----14----12-13-----------------------------------(9)r7
D----12----12-------14-12----12-14-12----------0h5h6-------
A-------------------------14----------14-13-12-------------
E----------------------------------------------------------


E-7-----7------7-----7-----7-----7------7-------7-----0-0-0
B-7b(9)-7b(9)--7b(9)-7b(9)-7b(9)-7b(9)--7bh(9)-(9)r7--5-4-3
G----------------------------------------------------------
D----------------------------------------------------------
A----------------------------------------------------------
E----------------------------------------------------------

E-0-------------0-5p0-2p0-------0-5p0-2p0-------0-2-----0--
B-1h2---------------------5p0-2-----------5p0-3-----0h3----
G-----2-1-2-2----------------------------------------------
D----------------------------------------------------------
A----------------------------------------------------------
E----------------------------------------------------------


E-0-----0-2-----0-0-----0-4-----0-2-----0-4-----0-2-----0-5
B---0h3-----0h3-----0h3-----0h5-----0h5-----0h5-----0h5----
G----------------------------------------------------------
D----------------------------------------------------------
A----------------------------------------------------------
E----------------------------------------------------------

E---0---2-----------0-5p0-2p0-------0-5p0-2p0-------0-2----
B-0---0---0-1-2---------------5p0-2-----------5p0-3-----0h3
G---------------2------------------------------------------
D----------------------------------------------------------
A----------------------------------------------------------
E----------------------------------------------------------


E-0-0-----0-2-----0-0-----4-----0-2-----0-4-----0-2-----0--
B-----0h3-----0h3-----0h3---0h5-----0h5-----0h5-----0h5----
G----------------------------------------------------------
D----------------------------------------------------------
A----------------------------------------------------------
E----------------------------------------------------------

E-5---2---0----------------------0---------------0---------
B---0---0---0-1-2------0---0h2h3---2---0---0h2h3---2---0---
G-----------------2--2---2-----------2---2-----------2-----
D----------------------------------------------------------
A----------------------------------------------------------
E----------------------------------------------------------


E---------0---------0------------0---------------0---------
B---0h2h3---2---0-3---0------0h2---0---0-----0h2---0---0---
G-2-----------2----------1h4---------4---1h4---------4-----
D----------------------------------------------------------
A----------------------------------------------------------
E----------------------------------------------------------

E---------0----------------------------0---------------0---
B-----0h2---0---0-1h2--------0---0h2h3---2---0---0h2h3---2-
G-1h4---------4-------2----2---2-----------2---2-----------
D----------------------------------------------------------
A----------------------------------------------------------
E----------------------------------------------------------


E-------------0-----------5-----5-5-5-4h5p4-2-4-5-4-2-4-2
B---0---0h2h3---2---0-2h3----------------------------------
G-2---2-----------2----------------------------------------
D----------------------------------------------------------
A----------------------------------------------------------
E----------------------------------------------------------

E---------2------------------------------------------------
B-6-5-3-5---5-3-0-1b(2)------------------------------------
G-----------------------2----------------------------------
D--------------------------5b(6)---------------------------
A--------------------------------7b(9)r7b(9)r7b(9)r7-------
E----------------------------------------------------------






Johnny Hiland Tabs & Chords



Johnny Hiland Tabs, Tablatures, Chords, Lyrics

Buy Johnny Hiland CD
Johnny Hiland
Buy Johnny Hiland CD

  1. Johnny Hiland - G Wiz (complete) Tabs
  2. Johnny Hiland - Gatton To It Tabs
  3. Johnny Hiland - Orange Blossom Special(part 2) Tabs
  4. Johnny Hiland - Orange Blossom Special(part 3) Tabs
  5. Johnny Hiland - Tonal Emersion (lead Guitar) Tabs



cowboylyrics.com
All lyrics are property and copyright of their owners. All lyrics provided for educational purposes only.