Johnny Hiland, Orange Blossom Special(part 3) Tabs, Chords, Lyrics

Johnny Hiland, Orange Blossom Special(part 3) Tabs, Chords

 SITE MENU
 Request Tabs
 Add/Correct Tabs
 DMCA Policy
 Country Sheet Music
0

BROWSE LYRICS AND TABS BY ARTIST/BAND NAME: SEARCH HERE:
A B C D E F G H I J K L M N O P Q R S T U V W X Y Z #
 

Johnny Hiland - Orange Blossom Special(part 3) (Tabs)


Johnny Hiland CD
Johnny Hiland Sheet music
Johnny Hiland Posters
JOhnny Hiland:Orange Blossom Special(Part 3)


E----------------------------------------------------------
B----------------------------------------------------------
G----------------------------------------------------------
D-6-5-4b(6)-(6)r4--4-5-6-6----------------2----------------
A-7-6-5------------5-6-7-7---0---------------------0-2-2---
E------------------------------2b(4)r2-0----0-0-4----------


E----------------------------------------------------------
B----------------------------------------------------------
G----------------------------------------------------------
D-------------------------2--------------------------------
A---0-------0-0---0-0-3/4---4\2-2-2---------------------0--
E-4---3\2-0-------------------------2b(4)r2-0---0-0-3/4----

E-----------------------------------------12---------------
B-----------------------------------12-------14-12-12------
G----------------------------------------------------------
D------------------------------2-------14-------------14---
A-2-2-----0-1-2-2--0---------------------------------------
E-----3h4------------2b(4)r2-0-----------------------------


E----------------------12----------------------------------
B-12----------12-13h14----14-13p12----12-------------------
G----14-12h13----------------------14----14b(16)r14-12-14-0
D----------------------------------------------------------
A----------------------------------------------------------
E----------------------------------------------------------

E------------------------------------------12--------------
B------------------------------------12-------14-12-12-----
G-12-13----------------------------------------------------
D-------14-14-13-14b(16)r14b(16)r14-----14-------------14--
A----------------------------------------------------------
E----------------------------------------------------------


E---------12----------12----------12-----------------------
B-15b(17)----15-12-------15-12-------------------14----12--
G------------------12----------12----15-14-12----14----12--
D---------------------------------------------14----14-----
A----------------------------------------------------------
E----------------------------------------------------------

E----------------------------------------0------0-------0--
B-12----------11/12----14----12--------------15------15----
g-13----------12/13----14----12h13----11-/16------16-------
D----14-12----------14----14-------14----------------------
A----------14----------------------------------------------
E----------------------------------------------------------


E-------0-------0-------0-------0-------0-------0-------0--
B----15------15------15------14------14------14------14----
G-16------16------16------15------15------15------15-------
D----------------------------------------------------------
A----------------------------------------------------------
E----------------------------------------------------------

E-------0-------0-------0-------0-------0-------0-------0--
B----14------13------13------13------13------13------12----
G-15------14------14------14------14------14------13-------
D----------------------------------------------------------
A----------------------------------------------------------
E----------------------------------------------------------


E-------0------0-------0-----0----0-----0-----0-----0-----0
B----12-----12-------3-----3----3-----3-----3-----2-----2--
G-13-----13------2/4-----4----4-----4-----4-----3-----3----
D----------------------------------------------------------
A----------------------------------------------------------
E----------------------------------------------------------

E-----0-----0-----0-----0-----0-----0-----0------------0---
B---2-----2-----2-----1-----1-----1-----1------------------
G-3-----3-----3-----2-----2-----2-----2-----2b(4)r2-1------
D----------------------------------------------------------
A----------------------------------------------------------
E----------------------------------------------------------


E-0-0-0-0-0--0-0-0-0-0-0--0---0----------------------------
B-0-2-3-2-0--0-2-3-5-2-3-0---------------------------------
G---------------------------2---1b(2)r1b(2)r1b(2)r1b(2)r1--
D----------------------------------------------------------
A----------------------------------------------------------
E----------------------------------------------------------

E----------------------------------------------------------
B----------------------------------------------------------
G----------------------------------------------------------
D-(6)r4-2--------------------------------------------------
A-----------4---5\4b(5)------------------------------------
E---------0---0--------------------------------------------




Johnny Hiland Tabs & Chords



Johnny Hiland Tabs, Tablatures, Chords, Lyrics

Buy Johnny Hiland CD
Johnny Hiland
Buy Johnny Hiland CD

  1. Johnny Hiland - G Wiz (complete) Tabs
  2. Johnny Hiland - Gatton To It Tabs
  3. Johnny Hiland - Orange Blossom Special(part 2) Tabs
  4. Johnny Hiland - Orange Blossom Special(part 3) Tabs
  5. Johnny Hiland - Tonal Emersion (lead Guitar) Tabs



cowboylyrics.com
All lyrics are property and copyright of their owners. All lyrics provided for educational purposes only.