, Underneath The Stars Tabs, Chords, Lyrics

, Underneath The Stars Tabs, Chords

 SITE MENU
 Request Tabs
 Add/Correct Tabs
 DMCA Policy
 Country Sheet Music
0

BROWSE LYRICS AND TABS BY ARTIST/BAND NAME: SEARCH HERE:
A B C D E F G H I J K L M N O P Q R S T U V W X Y Z #
 

- Underneath The Stars (Tabs)


CD
 Sheet music
Posters
Artist: Kate Rusby





C F Am7 G 
C|------------0-------------------|------------0======---------0===|
B|------------------------6---5===|==----------------------0-------|
G|--------0-----------------------|--------0-----------0-----------|
D|----5---------------7-----------|--------------------------------| x 2
A|3---------------8---------------|----7---------------------------|
D|--------------------------------|7---------------5---------------|
^ ^ ^ ^ ^ ^ ^ ^




C F Am7 G 
C|------------0---------------0===|==----------0======---------0===|
B|----------------------------6===|==----------------------0-------|
G|--------0-----------0-----------|--------0-----------0-----------|
D|----5-------------------7-------|--------------------------------|
A|3---------------8---------------|----7---------------------------|
D|--------------------------------|7---------------5---------------|
^ ^ ^ ^ ^ ^ ^ ^

Un- derneath ... meet you,


C F Am7 G 
C|------------0---------------0===|==----------0======---------0===|
B|----------------------------6===|==----------------------0-------|
G|--------0-----------0-----------|--------0-----------0-----------|
D|----5-------------------7-------|--------------------------------|
A|3---------------8---------------|----7---------------------------|
D|--------------------------------|7---------------5---------------|
^ ^ ^ ^ ^ ^ ^ ^

Un- der-neath ... greet you,



C F Am7 G 
C|------------0---------------0===|==----------0======---------0===|
B|----------------------------6===|==----------------------0-------|
G|--------0-----------0-----------|--------0-----------0-----------|
D|----5-------------------7-------|--------------------------------| (x2 vv3&4)
A|3---------------8---------------|----7---------------------------|
D|--------------------------------|7---------------5---------------|
^ ^ ^ ^ ^ ^ ^ ^

And there beneath ... I'll leave you, Be-

F G 
C|----------------7-----------7---|----------------|
B|--------0-----------------------|--------0-------|
G|------------0-------0-----------|0---------------|
D|----7-------------------7-------|0---------------|
A|8-------------------------------|3---------------|
D|--------------------------------|3---------------|
^ ^ ^ ^ ^ ^ 

fore ... own free 


C F Am7 G 
C|------------0-------------------|------------0======---------0===|
B|------------------------6---5===|==----------------------0-------|
G|--------0-----------------------|--------0-----------0-----------|
D|----5---------------7-----------|--------------------------------|
A|3---------------8---------------|----7---------------------------|
D|--------------------------------|7---------------5---------------|
^ ^ ^ ^ ^ ^ ^ ^

will. Go gen- tly.


Kate Rusby Tabs & Chords



Kate Rusby Tabs, Tablatures, Chords, Lyrics

Buy Kate Rusby CD
Kate Rusby
Buy Kate Rusby CD

  1. Kate Rusby - Underneath The Stars Tabs



cowboylyrics.com
All lyrics are property and copyright of their owners. All lyrics provided for educational purposes only.