, Bar Stool Tabs, Chords, Lyrics

, Bar Stool Tabs, Chords

 SITE MENU
 Request Tabs
 Add/Correct Tabs
 DMCA Policy
 Country Sheet Music
0

BROWSE LYRICS AND TABS BY ARTIST/BAND NAME: SEARCH HERE:
A B C D E F G H I J K L M N O P Q R S T U V W X Y Z #
 

- Bar Stool (Chords)


CD
 Sheet music
Posters
Intro

    G                           Cadd9       D
------------------------------------3---------2h3
------------------------------------3--------3---
--------------------------------------------2----
--------0-------0-----0--------0--2---0h20-------
------2---0h2-2-----2----0h2-2--3----------------
----3-------------3------------------------------

    G
------------------------------------3---------2h3
------------------------------------3--------3---
--------------------------------------------2----
--------0-------0-----0--------0--2---2br-0------
------2---0h2-2-----2----0h2-2--3----------------
----3-------------3------------------------------


Verse 1:

G                               Cadd9              D
Well I never thought about the way things were back then

G                              Cadd9               D
And I never thought about the way things could have been

Cadd9                     D
And I never thought about tomorrow or today

Cadd9                      D
And I never thought that I would turn to you and say

Chorus:

G               Cadd9                  D
Girl I love you I love you with all my heart

G               Cadd9                D
Girl I love you I guess I'm not that smart, because 

G                                     Cadd9
I've been drinkin' alot and I've been thinkin' alot

G                    D  
sittin' on an ole bar stool

    G                                     Cadd9               
And I've been drinkin' alot and I've been thinkin' alot 

G                    D              G
sittin' on an ole bar stool without you

Verse 2:

Well I never thought about the words we used to say
And I never thought that you would ever go away
I never thought that i'd be standin her alone
I never thought that your love for me would roam

Chorus x2


You just practically play out the intro through the whole song except 
for the 3rd and 4th lines of the verses.



 


Kyle Hunt Tabs & Chords



Kyle Hunt Tabs, Tablatures, Chords, Lyrics

Buy Kyle Hunt CD
Kyle Hunt
Buy Kyle Hunt CD

  1. Kyle Hunt - Bar Stool Chords
  2. Kyle Hunt - Carpe Diem Chords
  3. Kyle Hunt - Memory Road(correct) Chords



cowboylyrics.com
All lyrics are property and copyright of their owners. All lyrics provided for educational purposes only.