Danni Leigh, Sometimes (Intro) Tabs, Chords, Lyrics

Danni Leigh, Sometimes (Intro) Tabs, Chords

 SITE MENU
 Request Tabs
 Add/Correct Tabs
 DMCA Policy
 Country Sheet Music
0

BROWSE LYRICS AND TABS BY ARTIST/BAND NAME: SEARCH HERE:
A B C D E F G H I J K L M N O P Q R S T U V W X Y Z #
 

Danni Leigh - Sometimes (Intro) (Chords)


Danni Leigh CD
Danni Leigh Sheet music
Danni Leigh Posters
Intro:
--------14p12-------9----------------------------
--12/14-------14\12---12p9----9---------9-10/12--
---------------------------11---11-9-------------
-------------------------------------11----------
-------------------------------------------------
-------------------------------------------------

--------14p12-------9----------------------------
--12/14-------14\12---12p9----9---------9--------
---------------------------11---11-9------11/13--
-------------------------------------11----------
-------------------------------------------------
-------------------------------------------------


Leigh Danni Tabs & ChordsLeigh Danni Lyrics



Leigh Danni Tabs, Tablatures, Chords, Lyrics

Buy Leigh Danni CD
Leigh Danni
Buy Leigh Danni CD

  1. Leigh Danni - 29 Nights Chords
  2. Leigh Danni - Beatin' My Head Against The Wall Chords
  3. Leigh Danni - Can't Build A Better Love Chords
  4. Leigh Danni - History Will Decide Chords
  5. Leigh Danni - Honey I Do Chords
  6. Leigh Danni - I Feel A Heartache Chords
  7. Leigh Danni - If Jukebox Took Teardrops Chords
  8. Leigh Danni - If The Jukebox Took Teardrops Chords
  9. Leigh Danni - Masquerade Of A Fool Chords
  10. Leigh Danni - Sometimes Chords
  11. Leigh Danni - Sometimes (Intro) Chords



cowboylyrics.com
All lyrics are property and copyright of their owners. All lyrics provided for educational purposes only.