, Fairytales And Wedding Bells Tabs, Chords, Lyrics

, Fairytales And Wedding Bells Tabs, Chords

 SITE MENU
 Request Tabs
 Add/Correct Tabs
 DMCA Policy
 Country Sheet Music
0

BROWSE LYRICS AND TABS BY ARTIST/BAND NAME: SEARCH HERE:
A B C D E F G H I J K L M N O P Q R S T U V W X Y Z #
 

- Fairytales And Wedding Bells (Tabs)


CD
 Sheet music
Posters
Lindsay Lea
Fairytales And Weddingbells
Guitarviper

Piano Theme Tabbed For Guitar:
--13-17-15-13-13h15-13----------------------------17-15----13--
--13-18-15-13-13h15-13-17-13/15-------------15-17-17-15-17-13--
-----------------------17-13/15-17p16p15\12-15-17-------17-----
-----------------------------------------14--------------------
---------------------------------------------------------------
---------------------------------------------------------------
Intro: (General Idea)
   F                Bb             C             F
------1---1---------1--1-----------0-------------1-------- 
--------1---1-----3--3---3-------1---1---------1---1------
----2---------2-3----------3-----------0-----2-------2----
--3----------------------------2---------2-3-----------3--
-----------------------------3----------------------------
----------------------------------------------------------
Verse: (Pick Chords)
F             Bb
Never been in love before
C                  Bb       F
Theres one thing I know for sure
      F                      Bb
I'm a little old fashion I'm proud to say
C                 F
I was raised that way
F            Bb
I believe in fairy tales
C                  Bb      F
Nursery rhymes and wedding bells
F               Bb        C            F     
When I give my heart away it will be forever

Piano Theme Again Over F Bb C F
Take It Up A Half-Step  B

Gb               B
So if you want a love that's true
Db                    B       Gb
Someone who'll always be with you
Gb                B      
Then I'll give my loving heart
Db                 Gb
But know before we start
Gb           B
I believe in fairy tales
Db                 B       Gb
Nursery rhymes and wedding bells
Gb              B         Db           Gb     B Db Gb
When I give my heart away it will be forever

It will be forever

*Best Way To Play Chords For This Song*
F  - 133211       Gb - 244322
Bb - X13331       B  - X24442
C  - X35553       Db - X46664


Lindsay Lea Tabs & Chords



Lindsay Lea Tabs, Tablatures, Chords, Lyrics

Buy Lindsay Lea CD
Lindsay Lea
Buy Lindsay Lea CD

  1. Lindsay Lea - Fairytales And Wedding Bells Tabs
  2. Lindsay Lea - Make Believin' Chords
  3. Lindsay Lea - Miracle Of Love Tabs
  4. Lindsay Lea - Talkin' Bout Love Tabs



cowboylyrics.com
All lyrics are property and copyright of their owners. All lyrics provided for educational purposes only.