, Miracle Of Love Tabs, Chords, Lyrics

, Miracle Of Love Tabs, Chords

 SITE MENU
 Request Tabs
 Add/Correct Tabs
 DMCA Policy
 Country Sheet Music
0

BROWSE LYRICS AND TABS BY ARTIST/BAND NAME: SEARCH HERE:
A B C D E F G H I J K L M N O P Q R S T U V W X Y Z #
 

- Miracle Of Love (Tabs)


CD
 Sheet music
Posters
Miracle Of Love
Lindsay Lea
Guitarviper

Intro:
--------7-5---7--------------------7-5---7----------------7-5---7---------------
----7-------8---8-7-8p7-5/7----7-------8---8-7-8-5----7-------8---8-7-8p7-5/7---
--7---7---------7-7-7-7-4/6--7---7---------7-7-7-4--7---7---------7-7-7-7-4/6---
--------------------------------------------------------------------------------
--------------------------------------------------------------------------------
--------------------------------------------------------------------------------

--------7-5---7-----------------
----7-------8---8-7-8p7-5/7-----
--7---7---------7-7-7---4/6-----
----------------------------7---
----------------------------7---
--------------------------------

D      A         G           A
Didn't mean too, didn't even want too
D          A   G           A
But here I am in love with you
D       A       G            A
What to do now, won't matter anyhow
G                              A
Cus I can tell just looking at you
G                             A
This things gotta hold of you too


D      A        G  A
It's a magical, so natural,
D      A       G    A
It's a miracle of love
D      A       G      A
So mysterious. thats serious
D      A       G   A
It's a miracle of love


D     A      G          A
So remember, sweet is surrender
D       A   G          A
Here it is so warm and tender
D        A      G        A
Feeling crazy, thinking maybe
G                                      A
This is the thing that dreams are made of
G                            A
And I could never get enough of


D   A        G    A
So powerful, metaphysical
D      A       G   A
It's a miracle of love
D      A       G      A
So mysterious. thats serious
D      A       G   A
It's a miracle of love
D      A        G  A
It's a magical, so natural,
D      A       G    A
It's a miracle of love
D      A       G      A
So mysterious. thats serious
D      A       G   A
It's a miracle of love

Lead:
---------7------------------------------------------
----10-----10-8-10-8-8-7-8-5/7-8-7\5-7-5\3-5-3\2-3--
--7----7--------------------------------------------
----------------------------------------------------
----------------------------------------------------
----------------------------------------------------
D   A        G    A
So powerful, metaphysical
D      A       G   A
It's a miracle of love

Lead:
------------------------------------------------------
------7-5---------------------------------------------
--5/7-----7-6-7/9-7-6-6/7-6---------------------------
----------------------------7------7h9p7---7h9p7---7--
-------------------------------7h9-------9-------9----
------------------------------------------------------
D      A        G  A
It's a magical, so natural,
D      A       G    A
It's a miracle of love

(fades out)



Lindsay Lea Tabs & Chords



Lindsay Lea Tabs, Tablatures, Chords, Lyrics

Buy Lindsay Lea CD
Lindsay Lea
Buy Lindsay Lea CD

  1. Lindsay Lea - Fairytales And Wedding Bells Tabs
  2. Lindsay Lea - Make Believin' Chords
  3. Lindsay Lea - Miracle Of Love Tabs
  4. Lindsay Lea - Talkin' Bout Love Tabs



cowboylyrics.com
All lyrics are property and copyright of their owners. All lyrics provided for educational purposes only.