Aaron Lines, Lets Get Drunk And Fight intro Tabs, Chords, Lyrics

Aaron Lines, Lets Get Drunk And Fight intro Tabs, Chords

 SITE MENU
 Request Tabs
 Add/Correct Tabs
 DMCA Policy
 Country Sheet Music
0

BROWSE LYRICS AND TABS BY ARTIST/BAND NAME: SEARCH HERE:
A B C D E F G H I J K L M N O P Q R S T U V W X Y Z #
 

Aaron Lines - Lets Get Drunk And Fight intro (Chords)


Aaron Lines CD
Aaron Lines Sheet music
Aaron Lines Posters
e|---------------------------------------------------------------|
B|--------2-2-2-1-0-----2-2-1-0---4-----2-2-2-1-0-0--------------|
G|--------3-3-3-2-1----s3-3-2-1---4-----3-3-3-2-1-1--------------|
D|----s4--------------s4----------s4----s4-----------------------|
A|---------------------------------------------------------------|
E|---------------------------------------------------------------|

e|---------------------------------------------------------------|
B|-------2-2-2-1-0-----------------------------------------------|
G|-------3-3-3-2-1--3--------------------------------------------|
D|----s4-----------s4--------4-----------------------------------|
A|------------------------4h6------4-----------------------------|
E|-----------------------------4h6----4s2------------------------|


Lines Aaron Tabs & ChordsLines Aaron Lyrics



Lines Aaron Tabs, Tablatures, Chords, Lyrics

Buy Lines Aaron CD
Lines Aaron
Buy Lines Aaron CD

  1. Lines Aaron - American Way Chords
  2. Lines Aaron - Cheaper To Keep Her Chords
  3. Lines Aaron - Close Chords
  4. Lines Aaron - I Can Read Your Heart Chords
  5. Lines Aaron - I Can't Live Without Your Love Chords
  6. Lines Aaron - I Haven't Even Heard You Cry Chords
  7. Lines Aaron - I Will Be There Chords
  8. Lines Aaron - It Takes A Man Chords
  9. Lines Aaron - Knock On Wood Chords
  10. Lines Aaron - Lets Get Drunk And Fight intro Chords
  11. Lines Aaron - Lights Of My Hometown Chords
  12. Lines Aaron - Living Out Loud Chords
  13. Lines Aaron - Love Changes Everything Chords
  14. Lines Aaron - She Called Me Kansas Chords
  15. Lines Aaron - Somebody's Son Chords
  16. Lines Aaron - The American Way Chords
  17. Lines Aaron - These Are Those Days Chords
  18. Lines Aaron - Turn It Up / I Like The Sound Of That Chords
  19. Lines Aaron - Twenty Years Late Chords
  20. Lines Aaron - Waitin' On The Wonderful Chords
  21. Lines Aaron - You Cant Hide Beautiful Chords



cowboylyrics.com
All lyrics are property and copyright of their owners. All lyrics provided for educational purposes only.