Los Lonely Boys, Heaven (intro And 1st Solo) Tabs, Chords, Lyrics

Los Lonely Boys, Heaven (intro And 1st Solo) Tabs, Chords

 SITE MENU
 Request Tabs
 Add/Correct Tabs
 DMCA Policy
 Country Sheet Music
0

BROWSE LYRICS AND TABS BY ARTIST/BAND NAME: SEARCH HERE:
A B C D E F G H I J K L M N O P Q R S T U V W X Y Z #
 

Los Lonely Boys - Heaven (intro And 1st Solo) (Tabs)


Los Lonely Boys CD
Los Lonely Boys Sheet music
Los Lonely Boys Posters
This is an incredibly easy solo that any guitarist can play, 
and the intro is very simple if you listen to the song.  
Gool luck and let me know what you think!

e-6-6---7/9--9--9--9--9--9--9-/7-7--11-11-11-11-11-11/-9--9
B-7-7---9/11-11-11-11-11-11-11/9-9--12-12-12-12-12-12/11-11
D----------------------------------------------------------
G----------------------------------------------------------
A----------------------------------------------------------
E----------------------------------------------------------

e--9--9--9--9--9/7-7--9-11-11-11-11/-9-7
B-11-11-11-11-11/9-9-11-12-12-12-12/11-9 repeate 
D---------------------------------------
G---------------------------------------
A---------------------------------------
E---------------------------------------

First solo
(1:13)

e--9-7-6------------------------------7-6---
B-------7-------7-----7(let ring)---------7-
D--------6------------------------6/8---6---
G------------8h9-8-9-8--------------------8-
A-------------------------------------------
E-------------------------------------------


Los Lonely Boys Tabs & ChordsLos Lonely Boys Lyrics



Los Lonely Boys Tabs, Tablatures, Chords, Lyrics

Buy Los Lonely Boys CD
Los Lonely Boys
Buy Los Lonely Boys CD

  1. Los Lonely Boys - Crazy Dream Chords
  2. Los Lonely Boys - Dime Mi Amor Chords
  3. Los Lonely Boys - Heaven (intro And 1st Solo) Tabs
  4. Los Lonely Boys - Heaven V.2 Tabs
  5. Los Lonely Boys - Hollywood Intro Chords
  6. Los Lonely Boys - Hollywood V3 Tabs
  7. Los Lonely Boys - La Contestacion Chords
  8. Los Lonely Boys - More Than Love Chords
  9. Los Lonely Boys - Nobody Else Chords
  10. Los Lonely Boys - Nobody Else (standard) Chords
  11. Los Lonely Boys - Real Emotions Chords
  12. Los Lonely Boys - Seņorita Chords
  13. Los Lonely Boys - Velvet Sky Chords
  14. Los Lonely Boys - Velvet Sky (standard) Chords



cowboylyrics.com
All lyrics are property and copyright of their owners. All lyrics provided for educational purposes only.