Los Lonely Boys, Heaven V.2 Tabs, Chords, Lyrics

Los Lonely Boys, Heaven V.2 Tabs, Chords

 SITE MENU
 Request Tabs
 Add/Correct Tabs
 DMCA Policy
 Country Sheet Music
0

BROWSE LYRICS AND TABS BY ARTIST/BAND NAME: SEARCH HERE:
A B C D E F G H I J K L M N O P Q R S T U V W X Y Z #
 

Los Lonely Boys - Heaven V.2 (Tabs)


Los Lonely Boys CD
Los Lonely Boys Sheet music
Los Lonely Boys Posters
Tune all guitars down one half step
Eb Ab Db Gb Bb Eb
 
Intro
  
Gtr I
  ~
|-7-7-----8s10-10-10-10-10-10-|-10s=8--8--12--12--12--12--12-|
|-8-8----10s12-12-12-12-12-10-|-12s10-10--13--13--13--13--13-|
|-----------------------------|------------------------------|
|-----------------------------|------------------------------|
|-----------------------------|------------------------------|
|-----------------------------|------------------------------|



|-12-10----10----10--10--10--10---|
|-13-12-12-12----12--12--12--12---|
|---------------------------------|
|---------------------------------|
|---------------------------------|
|---------------------------------|


|-10--8-----8--10--12--12--10-10----8-7-|
|-12-10-10-10--12--13--13--12----10-----|
|---------------------------------------|
|---------------------------------------|
|---------------------------------------|
|---------------------------------------|


  G                                   Am
  ~
|-7-7--x-x-x----8s10-10-10-10-10-10-|-10s=8--8--x-x-12--12--12--12--12-|
|-8-8--------x-10-12-12-12-12-12-12-|-12-10-10------13--13--13--13--13-|
|-----------------------------------|----------------------------------|
|-----------------------------------|----------------------------------|
|-----------------------------------|----------------------------------|
|-----------------------------------|----------------------------------|
|
|Gtr II
|-7-7--x-x-x----8s10-10-10-10-10-10-|-10s=8--8--x-x-12--12--12--12--12-|
|-8-8--------x-10-12-12-12-12-12-12-|-12-10-10------13--13--13--13--13-|
|-----------------------------------|----------------------------------|
|-----------------------------------|----------------------------------|
|-----------------------------------|----------------------------------|
|-----------------------------------|----------------------------------|


  G                                     Am
|-12s10----10--x-x-x---10--10--10--10-|-10--8-----8--10--12--12--10-10----8---||
|-13-12-12-----------x-12--12--12--12-|-12-10-10-10--12--13--13--12-12-9-10-8-||
|-------------------------------------|---------------------------------------||
|-------------------------------------|---------------------------------------||
|-------------------------------------|---------------------------------------||
|-------------------------------------|---------------------------------------||
|
|-12s10----10--x-x-x---10--10--10--10-|-10--8-----8--10--12--12--10-10----8---||
|-13-12-12-----------x-12--12--12--12-|-12-10-10-10--12--13--13--12-12-9-10-8-||
|-------------------------------------|---------------------------------------||
|-------------------------------------|---------------------------------------||
|-------------------------------------|---------------------------------------||
|-------------------------------------|---------------------------------------||


 1st Guitar Solo
          Gsus4
  Gtr I
  ~                          ~
|-7-7-x-x--------------------------x-|
|-8-8-----x-----10b12-10s8---8-------|
|-------------x------------9---------|
|-----------x------------------------|
|------------------------------------|
|------------------------------------|
|
| Gtr II
|-3-3-----3------3-----3-3---3-3-3---|
|-3-3---x-3------3-----3-3---3-3-3---|
|-4-4---x-5------5-----4-4---4-4-4---|
|-5-5--------------------5---5-5-5---|
|------------------------------------|
|------------------------------------|


  Am            Asus4       Am     AsusAm
                                                  ~
|---------------------10b12-----10-------------------|
|-8-------x-x-x-0--x---------------0---10b12-10-8-8--|
|----9----------0------------------0-----------------|
|---(0)---------0------------------------------------|
|----------------------------------------------------|
|----------------------------------------------------|
|
|-5-----5-------5-(5)-------5-5------5--------5-5----|
|-5-----5-----x-5-(5)-------5-5------5--------5-5----|
|-5-----5-----x-7-(7)-------5-5------7--------5-5----|
|-7---------------------------------------------7----|
|----------------------------------------------------|
|----------------------------------------------------|


  G              Gsus4 G                       Am
                 T
|------------7-8-7-8-7----7------------------|------------------------||
|-(8)---8-10-----------10---10b12r(10)-8-----|-8-8-----10-8---0-8\----||
|-----9----------------------------------9---|-----9-x--x---9-7-------||
|--------------------------------------------|----------0-------------||
|--------------------------------------------|------------------------||
|--------------------------------------------|------------------------||
|
|--3----3--------3------3-3---------3----3-3-|-5-----5--5-5-5-5-5-----||
|--3----3--------3------3-3---------3----3-3-|-5-----5--5-5-5-5-5-----||
|--4----4--------4s==5--4-4---------4----4-4-|-5-----5--5-5-5-5-5-----||
|--5----5-----------------5---------5----5-5-|-7-----7--7-7-7-7-7-----||
|--------------------------------------------|------------------------||
|--------------------------------------------|------------------------||


 Verse 1
  G        Gsus4 G           Am
  Gtr I
-------M-------------------------------------------------
|--------------------------|----------------------------|
|--------------------------|----------------------------|
|--------------------------|----------------------------|
|------------5-5---5-------|-------------5--5-----5-5---|
|------5-7-------7-----7---|------x-7---------7-------7-|
|--------------------------|----------------------------|
|
| Gtr II
|-3-3------3---3-3-3-3-3-3-|-5-5------5-(5)-5---5-5-5---|
|-3-3------3---3-3-3-3-3-3-|-5-5------5-(5)-5---5-5-5---|
|-4-4------4s5-4-4-4-4-4-4-|-5-5------5-(5)-5---5-5-5-0-|
|-5-5------------5-5-5-5-5-|-7--------7-(7)-7---7-7-7-0-|
|--------------------------|--------------------------0-|
|--------------------------|----------------------------|


  G        GsusG
 ------------------------|
|------------------------------|
|------------------------------|
|------------------------------|
|------------5-------5---------|
|------x-7-------7-------7-----|
|------------------------------|
|
|-3-3------3---3-3-3-3-3-3-5---|
|-3-3------3---3-3-3-3-3-3-5---|
|-4-4------4s5-4-4-4-4-4-4-5---|
|-5-5------------5-5-5-5-5-----|
|------------------------------|
|------------------------------|


  Am         N.C.                G        GsusG
             PM----------------------------------------------
|------------------------------|----------------------------|
|------------------------------|----------------------------|
|------------------------------|----------------------------|
|--------------5-5-----5-------|------------5-------5-------|
|------------7-----7-------7---|------5-7-------7-------7---|
|------------------------------|----------------------------|
|
|-5-5-5-5----------------------|-3-3------3---3-3-3-3-3-3-3-|
|-5-5-5-5----------------------|-3-3------3---3-3-3-3-3-3-3-|
|-5-5-5-5----------------------|-4-4------4s5-4-4-4-4-4-4-4-|
|-7-7-7-7--x---5-5---5-7-5---5-|-5-5------------5-5-5-5-5-5-|
|------------7-----7-------7---|----------------------------|
|------------------------------|----------------------------|


  Am           AsusAm  AsusAm
 ----------------------------|
|--------------------------------|
|--------------------------------|
|--------------------------------|
|----------------5-------5-------|
|----------5-7-------7-------7---|
|--------------------------------|
|
|-5-5-5-5--5-5-5---5-5-5---5-5---|
|-5-5-5-5--5-5-5---5-5-5---5-5-x-|
|-5-5-5-5--5-5-5s7-5-5-5s7-5-5-x-|
|-7-7-7-7--7-7-------------------|
|--------------------------------|
|--------------------------------|


  G        GsusG               Am
       PM----------------------


Los Lonely Boys Tabs & ChordsLos Lonely Boys Lyrics



Los Lonely Boys Tabs, Tablatures, Chords, Lyrics

Buy Los Lonely Boys CD
Los Lonely Boys
Buy Los Lonely Boys CD

  1. Los Lonely Boys - Crazy Dream Chords
  2. Los Lonely Boys - Dime Mi Amor Chords
  3. Los Lonely Boys - Heaven (intro And 1st Solo) Tabs
  4. Los Lonely Boys - Heaven V.2 Tabs
  5. Los Lonely Boys - Hollywood Intro Chords
  6. Los Lonely Boys - Hollywood V3 Tabs
  7. Los Lonely Boys - La Contestacion Chords
  8. Los Lonely Boys - More Than Love Chords
  9. Los Lonely Boys - Nobody Else Chords
  10. Los Lonely Boys - Nobody Else (standard) Chords
  11. Los Lonely Boys - Real Emotions Chords
  12. Los Lonely Boys - Seņorita Chords
  13. Los Lonely Boys - Velvet Sky Chords
  14. Los Lonely Boys - Velvet Sky (standard) Chords



cowboylyrics.com
All lyrics are property and copyright of their owners. All lyrics provided for educational purposes only.