Los Lonely Boys, Hollywood V3 Tabs, Chords, Lyrics

Los Lonely Boys, Hollywood V3 Tabs, Chords

 SITE MENU
 Request Tabs
 Add/Correct Tabs
 DMCA Policy
 Country Sheet Music
0

BROWSE LYRICS AND TABS BY ARTIST/BAND NAME: SEARCH HERE:
A B C D E F G H I J K L M N O P Q R S T U V W X Y Z #
 

Los Lonely Boys - Hollywood V3 (Tabs)


Los Lonely Boys CD
Los Lonely Boys Sheet music
Los Lonely Boys Posters
"Hollywood" by Los Lonely Boys


Here's how I play this song. It is tabbed in standard tuning, so if you
tune down 1/2 step like LLB do, you'll have to move everything up 1 fret.
I saw them play this live in Austin and I paid attention. I tabbed the outro
as close to the recording as I could figure, so it might not be 100% accurate
but it's close enough. Gotta play the 'feel' of this song, not necessarily
note-for-note...

Enjoy!


Intro
Cm				
-8--8-10-10-10-10-10-10-h-8-|-8--8-10-10-10-10-10-10-h-8-|
-8--8--8--8--8--8--8--8-----|-8--8--8--8--8--8--8--8-----|
-8--8--8--8--8--8--8--8-----|-8--8--8--8--8--8--8--8-----|
10-10-10-10-10-10-10-10-----|10-10-10-10-10-10-10-10-----|
----------------------------|----------------------------|
----------------------------|----------------------------|

A#Maj
-6—6-6---6-6-6-6----|-6—6-6---6-6-6-6----|
-6—6-6-h-6-6-6-6-p--|-6—6-6-h-6-6-6-6-p--|
-7—7-7-8-8-8-8-8--7-|-7—7-7-8-8-8-8-8--7-|
-8—8-8---8-8-8-8----|-8—8-8---8-8-8-8----|
--------------------|--------------------|
--------------------|--------------------|


Lead (repeat intro riff with this lead part)
-------------------------------|--------------|---------------------11-10-8-|----|
-------------------------------|---------p----|-------------8-10-11---------|-11-|
----------p----------7-8-7-----|------7-8-7---|------7-8-10-----------------|----|
--h---8-10-8----8-10-------8-8-|-8-10-------8-|-8-10------------------------|----|
-8-10--------10----------------|--------------|-----------------------------|----|
-------------------------------|--------------|-----------------------------|----|

-11-13-11-10----------|-6---6---6---6-6-|
-------------13-11-11-|-6---6---6---6-6-|
----------------------|-7-8-7---7-8-7-7-|
----------------------|--h-------h------|
----------------------|-----------------|
----------------------|-----------------|


    A#Maj
I'm calling up my Cheri, to tell her that I'm gonna leave
          D#Maj         D#m          A#Maj
Cause I'm movin' on to Hollywood you see
                                                       A#Maj  D#Maj  D#m  Cmaj  FMaj
     A#Maj                                             -6------6------6----8-----8--- 
It's always been a life-long dream, for my family      -6------8------7----8-----10--
   D#Maj  D#m             A#Maj                        -7------8------8----9-----10--
To see me on that silver screen                        -8------8------8----10----10--
                                                       -8------6------6----10----8--- 
                                                       -6------------------8---------
      CMaj            FMaj
And I know I can't go wrong
        CMaj             FMaj 
Cause I finally found my song
    CMaj              FMaj      A#Maj
I'm headed where I belong,  Hollywood


I know there's somethin’ in store for me, but nothing like the tragedies 
That have seen me through, in real life you see


And I know I can't go wrong
Cause I finally found my song
I'm headed where I belong, 
Cmaj       A#Maj
Hollywood, Hollywood
 


Solo
-----11---10---8-|-----11-10-8/10-6-|-------6---6---6---|-----------------------|
-6/8----8—---8---|-6/8-8—-10-8/10-6-|----h--------------|-----------------------|
-----------------|------------------|-7-7-8---8---8—--7-|-----------p-------h---|
-----------------|------------------|-------------------|--h---8-—10-8-----8-10-|
-----------------|------------------|-------------------|-8-10---------10-------|
-----------------|------------------|-------------------|-----------------------|


-----11---10---8/10\8-|-----11-10-8/10-6-|-------6---6---6---|----8-10-8---------|
-6/8----8—---8-8------|-6/8-8—-10-8/10-6-|----h--------------|-11--------11-8/10-|
----------------------|------------------|-7-7-8---8---8—--7-|-------------------|
----------------------|------------------|-------------------|-------------------|
----------------------|------------------|-------------------|-------------------|
----------------------|------------------|-------------------|-------------------|

Bridge
DMaj        Gm                    CMaj             FMaj      
I know that something's there for me    I'm flyin’ free
-5----------3---------------------3-------------------------------------------
-7----------3---------------------5----------------10-10--10-10—-10-10--10-10-
-7----------3---------------------5----------------10-10--10-10--10-10--10-10-
-7----------5---------------------5----------------10-10--10-10--10-10--10-10-
-5----------5---------------------3----------------8--8---xx-xx--xx-xx--xx-xx-
------------3---------------------------------------------11-11--10-10--8--8--

A#Maj
Next time that you see me, I'll be done with misery
        D#Maj              D#m              A#Maj
I'll be shinin' bright for all the world to see


Cause I know I can't go wrong
Cause I finally found my song
I'm headed where I belong, Hollywood, Hollywood


Cause I know I can't go wrong
Cause I finally found my song
I'm headed where I belong, Hollywood, Hollywood
Hollywood
Hollywood



Outro
                  ***   Play x4  *** **  Play x4  ** ***  Play x3  ***
-----------------|------------------|---------------|------------------|-----------------
-----------------|------------------|---------------|------------------|-----------------
-----------p-----|------------------|---------------|------------------|-----------------
--h---8--10-8----|8-10-10-8-10------|-8-8----8------|8-10-10-8-10------|-8-8----8--------
-8-10---------10-|-------------8-10-|-----10---8-10-|-------------8-10-|-----10----------
-----------------|------------------|---------------|------------------|-----------------
                                         h  p
-------------------------|-------10-11-10-11-10----10-------10-11-13-11-10----10---------
-------------------11----|-11-13----------------13----11-13----------------13----11-13---
----10-10-10-10-12----12-|---------------------------------------------------------------
/12----------------------|---------------------------------------------------------------
-------------------------|---------------------------------------------------------------
-------------------------|---------------------------------------------------------------
                p                     p
-----------10-11-10--------------10-11-10--------------10-13-11-10-/10-/10---------------
-11--11-13----------13-11--11-13----------13-11--11-13---------------------13-11---------
---12--------------------12--------------------12----------------------------------------
-----------------------------------------------------------------------------------------
-----------------------------------------------------------------------------------------
-----------------------------------------------------------------------------------------


Los Lonely Boys Tabs & ChordsLos Lonely Boys Lyrics



Los Lonely Boys Tabs, Tablatures, Chords, Lyrics

Buy Los Lonely Boys CD
Los Lonely Boys
Buy Los Lonely Boys CD

  1. Los Lonely Boys - Crazy Dream Chords
  2. Los Lonely Boys - Dime Mi Amor Chords
  3. Los Lonely Boys - Heaven (intro And 1st Solo) Tabs
  4. Los Lonely Boys - Heaven V.2 Tabs
  5. Los Lonely Boys - Hollywood Intro Chords
  6. Los Lonely Boys - Hollywood V3 Tabs
  7. Los Lonely Boys - La Contestacion Chords
  8. Los Lonely Boys - More Than Love Chords
  9. Los Lonely Boys - Nobody Else Chords
  10. Los Lonely Boys - Nobody Else (standard) Chords
  11. Los Lonely Boys - Real Emotions Chords
  12. Los Lonely Boys - Señorita Chords
  13. Los Lonely Boys - Velvet Sky Chords
  14. Los Lonely Boys - Velvet Sky (standard) Chords



cowboylyrics.com
All lyrics are property and copyright of their owners. All lyrics provided for educational purposes only.