Marshall Tucker Band, 24 Hours At A Time Tabs, Chords, Lyrics

Marshall Tucker Band, 24 Hours At A Time Tabs, Chords

 SITE MENU
 Request Tabs
 Add/Correct Tabs
 DMCA Policy
 Country Sheet Music
0

BROWSE LYRICS AND TABS BY ARTIST/BAND NAME: SEARCH HERE:
A B C D E F G H I J K L M N O P Q R S T U V W X Y Z #
 

Marshall Tucker Band - 24 Hours At A Time (Chords)


Marshall Tucker Band CD
Marshall Tucker Band Sheet music
Marshall Tucker Band Posters

24 Hours At A Time
The Marshall Tucker Band
>From the Album-"A New Life"
1974
Written by Toy Caldwell
Tabbed by Ray Scheidler 


      E    Esus4           E          Esus4 
E------------------------------------------------
B------------------------------------------------
G-----1--1---2----2---1----1--1----1----2----2---
D-----2--2---2----2--------2--2----2----2----2---
A-----2--2---2----2--------2--2----2----2----2---
E--0--0--0---0----0--------0--0----0----0----0---


  E           Esus4       E          Esus4
E------------------------------------------------
B------------------------------------------------
G-----------4--6--4-------4---6--4---------------
D--2--4/6-------------6------------6\4---2-----2-
A-------------------------------------------4----
E------------------------------------------------


   E                  Esus4   E          Esus4
E------------------------------------------------
B------------------------------------------------
G------------------------------------------------
D--4/5---4--2------2---------------2---2---------
A--------------4-------4---2---4-----------------
E------------------------------------------2/3--0


E            Esus4     E         Esus4
I've been down around Houston,Texas

           E             Esus4    (Fill #1)
Where the sun shines most of the time

Fill #1

   E               Esus4
D-------------------2--4-
A------------2--4--------
E--0--3--4---------------

E             Esus4 E         Esus4
I've been driving about six hours

           E            Esus4  E (Fill #2)
Tryin' to reach that Arkansas line


Fill #2

  E                 Esus4
E--------4----------------
B-------------------------
G--2/4-------4\2---0--2-0-

     A       
But Texarkana's an hour ahead 

And I've got to keep my wheels

 E              Esus4          E          Esus4
Roll- - - - - - - - - - - - - - - - - - - - - - -

E-7----7-----------------------------------------
B-7-9--7-9---7---5-------5-----7/9----7---5------
G--------------------6------------------------6--

                E                Esus4       E
----------------ing
 
E---------------7-----7--------------------------
B--5-------5----7-9---7-9---7--5--------5----5---
G------6---------------------------6-------------

E     Esus4      D
But woman you're always on my mind

             A
Twenty-four hours at a time

D           A
So my woman  I'm hoping you feel the

 E          Esus4     E               Esus4
Same

E--9---------------------------------------------
B------------------------------------------------
G----11/13\11-9-----9--9-----9-11/13--11--9------
D---------------11--------11-----------------11--

 E                   Esus4     E          Esus4
Way

E--9---------------------------------------------
B------------------------------------------------
G----11/13|11-9----9-----9--9-----------------9--
D---------------11---11---------11--9--(9)-11----

 E            Esus4    E      Esus4
Woman you know that I miss you

    E           Esus4    E (Fill #3)
And I can't miss you no more


Fill #3

   E             Esus4
D--------------2---4/5--4-
A-------2--4--------------
E--3-4--------------------

E          Esus4       E              Esus4
I got this ride doing seventy miles an hour

       E            Esus4        E  (Fill #4)
She's loaded she's down to the floor


Fill #4

   E               Esus4
E--7-----------------------------
B--7-9--5--7--5-----7/9\(7)-5----
G----------------6-------------6-

    A
But I've got to reach that Arkansas line

                     E   (Fill #5)
Before the sun goes down


Fill #5
                         
 E Esus4 E              Esus4
D--------------2--4/5---4--2-----
A-------2--4-------------------4-
E--3-4---------------------------

 E
Yeah
G----------4/6-------------------
D-2----2---------4/6---2------2--
A-------------------------4------
E--------------------------------

E    Esus4       D
But woman you're always on my mind

             A
Twenty-four hours at a time

D           A                       
So my woman  I'm hoping you feel the

 E                Esus4    E              Esus4
Same
E---------------9--------------------------------
B------------------------------------------------
G--11/13--(11)-----11/12---11--9-11/13--9--------
D------------------------------------------11--9-

 E                          Esus4        E Esus4
Way
E-----------9------------------------------------
B------------------------------------------------
G---11/13-------11--9---------9----------9-------
D------------------------11--------11------------

  G#m         A
  Woman you know I need you          I've been
E--4----------5----------------------------------
B--4--7/9-----5--------------7/9-7-5-------5-----
G--4----------6-----------------------6----------
D--6----------7----------------------------------
A--6----------7----------------------------------
E--4----------5----------------------------------

  G#m      A           
   On the road too much
E-------------------------7----------------------
B--7/9--------------(7)-------7/9-(7)--5---------

  G#m       A
  Tired of looking at the highway
E---------------------------------7--------------
B--7/9------------------------------7/9-7--(7)-5-

 B7sus2                              E  Esus4  E
  Got to keep in touch        some  way 
E--2---------------------------------------------
B--2-7/9--7-----5--------------------------------
G--2-------------------6--4--------------------4-
D--4--------------------------6\4----2-----4/6---
A--2------------------------------------4--------
E------------------------------------------------

             Esus4          E           Esus4
E------------------------------------------------
B------------------------------------------------
G--6------4--------------------------------------
D-----6-------6\4----2------2------------2-------
A-----------------------4-------4--2-4--------4--
E------------------------------------------------

      E                         Esus4
E------------------------------------------------
B------------------------------------------------
G------------------------------------------------
D----------2-------------------------------------
A---2--4--------4-----2---4-------2--------------
E---------------------------------------2/3------

E            Esus4     E        Esus4
I've been down around Houston,Texas

           E             Esus4      E  Esus4
Where the sun shines most of the time

E             Esus4  E       Esus4
I've been driving about six hours

           E           Esus4   E  Esus4
Tryin' to reach that Arkansas line

     A
But Texarkana's an hour ahead 

                                E Esus4 E Esus4 E
And I've got to keep my wheels roll-----------ing

E   Esus4        D
But woman you're always on my mind 

             A
Twenty-four hours at a time

D           A                         
So my woman  I'm hoping you feel the

   E
  Same
E------------------------------------------------
B--7/9---5--7------7/9---7------5-----5-----7/9--
G--------------6-------------6-----------6-------

   D                                       E
  Way                            feel the same
E------------------------------------------------
B----5--7------7/9---5---7-----5---6-----4--6----
G----------6----------------6---------6----------

                                D
                               Way
E------------------------------------------------
B------------------------------------------------
G--4---------4---------4----------4----------4---
D-------4-6-------4-6--------4-6--------4-6------
A------------------------------------------------
E------------------------------------------------


                    Feel the same
E------------------------------------------------
B------------------------------------------------
G-------4---4--6--4----------------4----------4--
D--4-6------------------------4-6--------4-6-----
A------------------------------------------------
E------------------------------------------------


E------------------------------------------------
B------------------------------------------------
G-------4----------4---------4-----------4-------
D--4-6--------4-6-------4-6---------4-6----------
A------------------------------------------------
E------------------------------------------------

      D
     Way
E------------------------------------------------
B------------------------------------------------
G-------4---------4---------4-----4--6--4--------
D--4-6-------4-6-------4-6-----------------------
A------------------------------------------------
E------------------------------------------------


  E                     D    
E--------------------------------4--5--7--5------
B--------------------------------------------7/9-
|                                                |
E--4-5--7--5--4---5--7--5--2--2------------------
B--5-7--9--7--5---7--9--7--3--3------------------


                                         E
E------------------------------------------------
B--(7)---5---7---------5---5----7---5------------
G-----------------6----------------------6\4-----


                             D
E------------------------------------------------
B----------------------------7/9-(7)-5-----7/9---
G---------------------------------------6--------
|                                                |
E--4--5---7---5---4----0-------------------------
B--5--7---9---7---5----0--3--3/5--2-------2-3--0-


                                           E
E------------------------------------------------
B--(7)---5-----7/9--(7)--5-------5---------5-----
G----------------------------6--------6----------
|                                                |
E------------------------------------------------
B---------------0------------0-------------------
G--------------------2----------------2-----1----


                                D
E---------------------------------9-9-9--9\7--7--
B------------------------------------------------
G------------------------------------------------
|                                                |
E--4--5---7----5---4----5---7---5-----2---2------
B--5--7---9----7---5----7---9---7-----3---3------
G------------------------------------------------

             
                                E
E--7---7-5---5---5---5-4--4-5---4----------------
B------------------------------------------------
G------------------------------------------------
|                                                |
E--------------------4----5-----4-----5--4--0--2-
B--------------------5----7-----5-----7--5--0--3-


                         E
E---7/8--(7)--5-----5----4--4--4--4--(4)-4--4--4-
B---------------6--------5--5--5--5--(5)-5--5--5-


                D
E--4--4--4--4--4\2-------------------------------
B--5--5--5--5--5\3-------------------------------
G----------------------------------9--11-9-------
D----------------------------9-11-----------11---
A----------------------9-11----------------------
E------------------------------------------------


E------------------------------------------------
B------------------------------------------------
G--11-9------11-9------11/13-(11)-9-------9---9--
D-------11--------11-----------------11----------
A------------------------------------------------
E------------------------------------------------ 


                    E                          D
E---------2--2--2--2/4--4--4--4--4--4-4-4--4-4\2-
B---------3--3--3--3/5--5--5--5--5--5-5-5--5-5\3-
G-------9---9------(9)---------------------------
D--11--------------------------------------------
A------------------------------------------------
E------------------------------------------------



E------------------------------------------------
B------------------------------------------------
G------------9-11----9---11-9----9-11--11-9----9-
D------9-11-------11----------11------------11---
A-9-11-------------------------------------------
E------------------------------------------------


E------------------------------12-----------12---
B-------------------------12---------14----------
G--11-9------9--9-11/13--------------------------
D--------11--------------------------------------
A------------------------------------------------
E------------------------------------------------


                      E                     
E--14-12---------12---14^16----14^16-------14^16-
B----------14------------------------------------
G------------------------------------------------

    D                                     E
E--(14)--14^16---14^16----14^16----14^16----(14)-
B------------------------------------------------
G------------------------------------------------


E------------------------------------------------
B--12---12--12--12--14--12\10--10---9--12--9\7---
G------------------------------------------------

        D
E------------------------------------------------
B--9\5------5--7^8-(7)-5-------5--5-------5--5---
G-------6------------------6----------6----------

   E
E--7-----7--7-----7---7------7--7------7---------
B--7/9---9--7-9---9---7-9----9--9--7---7---------
G------------------------------------------9-----

   D                                       E
E--7---------------------------------------------
B--7-9--9--7\5-----5------0---2--0---------7--5--
G---------------6-----6-------------2--0---------


E--7---7------7----7------7----7----7----7-------
B--9---7-9----9----7-9----9----9----9----7-------
G--------------------------------------------9---

    D                       
E------------7--------7--------------------------
B--(5)--7^8------7^8-----7/9-(7)-5-----5------5--
G-----------------------------------6------6-----

          E
E------------------------------------------------
B-----5---5---5---7----9----9-----9----9----7--5-
G--6---------------------------------------------
D---------6---6---7----9----9-----9----9----7--6-

   D
E------------------------------------------------
B------------------------------------------------
G--11^12---11-9-------9---11^12---9--11-9--9-11--
D----------------11------------------------------

                                    E
E---------------------------------------14---14--
B------------------------------------------------
G--9---12--11--9-------9--9---------9------------
D-----------------11-----------11----------------

   D                                          E
E--14\7---------------------7--------------------
B---------5----7^8-(7)--5------7^8---7-----7-----
G---------------------------------------6-----6--

      D                                       E
E-----4--5--7--4--5---7--4--5--7----4---5--4-(4)-
B------------------------------------------------
G------------------------------------------------

         D        
E--12---12\10---10---10\9---9---9/10----10---10--
B------------------------------------------------
G------------------------------------------------

       E     D
E--9\7-------------------------------------------
B--------5---7/9---9-10---10--9----9\7----5------
G---------------------------------------------6--

             E    D                         E
                                  Feel the same  
E------------------------------------------------
B---5--------5------3---3----3-----3\2--0--------
G-------6----------------------------------------

   D             E                           D
  Way  Feel the same                        way
E------------------------7------7------7------7--
B----------------------5------5------5------5----
G--------------------6------6------6------6------

                                     E
                           Feel the same
E--7--7/9-(7)------------------------------------
B--------------7^8-(7)--5------5--5--5-----------
G--------------------------6---------------------

                 D
                Way
E----------12---14-12-------12----14-12-----12---
B--12--14--------------14----------------14------
G------------------------------------------------


                                     Feel   
E--14-12-------12--14-12--------12---14-12-------
B---------14--------------14-----------------14--
G------------------------------------------------

       E                                 D
  The same                              way
E--12---12---------------------------------------
B------------14--12\9----------------------------
G----------------------11^13-(11)-9------9-------
D------------------------------------11------11--


Outro:


 G#m            A             G#m      B7sus2
E---7------------7-----7------9--7-------------
B---------------------------------------5------
G-------------------------------------------6--
|
E---------------4------------------------------
B---------------5------5--------5-------5---5--
G--4---4--------6------6----------------6---6--
D--6---6--------7------7----------------7---7--
A--6---6---------------------------------------
E--4---4--------------------------------7---7--


   G#m             A              G#m
E-----7-------------7------7-------------------
B----------------------------------7-----5-----
G----------------------------------------------
|                                              |
E------------------4---------------------------
B------------------5------5--------------------
G----4----4--------6------6--------4-----4-----
D----6----6--------7------7--------6-----6-----
A----6----6------------------------6-----6-----
E----4----4------------------------4-----4-----

        B7sus2                      E
E-----------------------------------7----------
B--------5---------5----------------7-9--------
G----6--------6--------------------------------
|                                              |
E----------------------------------------------
B----------------------------------------------
G--------4---------4----------------1----------
D--------4---------4----------------2----------
A--------2---------2----------------2----------
E----------------------------------------------



Marshall Tucker Band Tabs & ChordsMarshall Tucker Band Lyrics



Marshall Tucker Band Tabs, Tablatures, Chords, Lyrics

Buy Marshall Tucker Band CD
Marshall Tucker Band
Buy Marshall Tucker Band CD

  1. Marshall Tucker Band - 24 Hours At A Time Chords
  2. Marshall Tucker Band - Ab Song Chords
  3. Marshall Tucker Band - Am I That Kind Of Man Chords
  4. Marshall Tucker Band - Answer To Love Chords
  5. Marshall Tucker Band - Asking Too Much Of You Chords
  6. Marshall Tucker Band - Blue Ridge Mountain Sky Chords
  7. Marshall Tucker Band - Bound And Determined Chords
  8. Marshall Tucker Band - Cant You See Chords
  9. Marshall Tucker Band - Cattle Drive Chords
  10. Marshall Tucker Band - Change Is Gonna Come Chords
  11. Marshall Tucker Band - Desert Skies Chords
  12. Marshall Tucker Band - Dream Lover Chords
  13. Marshall Tucker Band - Driving You Out Of My Mind Chords
  14. Marshall Tucker Band - Everybody Needs Somebody Chords
  15. Marshall Tucker Band - Fire On The Mountain Chords
  16. Marshall Tucker Band - Fle Eagle Fly Chords
  17. Marshall Tucker Band - Foolish Dreaming Chords
  18. Marshall Tucker Band - Good Ole Hurtin' Chords
  19. Marshall Tucker Band - Heard It In A Love Song Chords
  20. Marshall Tucker Band - Holding On To You Chords
  21. Marshall Tucker Band - Ill Be Loving You Chords
  22. Marshall Tucker Band - In My Own Way Chords
  23. Marshall Tucker Band - It Takes Time Chords
  24. Marshall Tucker Band - Last Of The Singing Cowboys Chords
  25. Marshall Tucker Band - Life In A Song Chords
  26. Marshall Tucker Band - Losin You Chords
  27. Marshall Tucker Band - Love Is A Mystery Chords
  28. Marshall Tucker Band - Low Down Ways Chords
  29. Marshall Tucker Band - Never Started Loving You Chords
  30. Marshall Tucker Band - Never Trust A Stranger Chords
  31. Marshall Tucker Band - Now Shes Gone Chords
  32. Marshall Tucker Band - Property Line Chords
  33. Marshall Tucker Band - Running Like The Wind Chords
  34. Marshall Tucker Band - Searchin For A Rainbow Chords
  35. Marshall Tucker Band - Singing Rhymes Chords
  36. Marshall Tucker Band - Take The Highway Chords
  37. Marshall Tucker Band - Tell It To The Devil Chords
  38. Marshall Tucker Band - This Ol Cowboy Chords
  39. Marshall Tucker Band - Virginia Chords
  40. Marshall Tucker Band - Walkin The Streets Alone Chords
  41. Marshall Tucker Band - Windy City Blues Chords
  42. Marshall Tucker Band - You Dont Live Forever Chords
  43. Marshall Tucker Band - You Say You Love Me Chords



cowboylyrics.com
All lyrics are property and copyright of their owners. All lyrics provided for educational purposes only.