Marshall Tucker Band, Cattle Drive Tabs, Chords, Lyrics

Marshall Tucker Band, Cattle Drive Tabs, Chords

 SITE MENU
 Request Tabs
 Add/Correct Tabs
 DMCA Policy
 Country Sheet Music
0

BROWSE LYRICS AND TABS BY ARTIST/BAND NAME: SEARCH HERE:
A B C D E F G H I J K L M N O P Q R S T U V W X Y Z #
 

Marshall Tucker Band - Cattle Drive (Chords)


Marshall Tucker Band CD
Marshall Tucker Band Sheet music
Marshall Tucker Band Posters

Cattle Drive
The Marshall Tucker Band
>From the Album-"Tenth"
1980
Written by Toy & Tommy Caldwell
Tabbed by Ray Scheidler 

Chords:

       Am      Fmaj7     G6         E
E------------------------------------------------
B-------1--------1-------------------------------
G-------2--------2------------------1------------
D-------2--------3------------------2------------
A-------------------------2---------2------------
E-------------------------3----------------------


Intro:

E--------12--10-------------------12--10---------
B-10--13----------13--10---10--13---------13--10-
G------------------------------------------------
D------------------------------------------------
A------------------------------------------------
E------------------------------------------------


     Am
E------------------------------------------------
B-----1--1-1--1--0------------1--1-1--1--0-------
G-----2--2-2--------2--0------2--2-2--------2--0-
D-----2--2-2------------------2--2-2-------------
A--0-----------------------0---------------------
E------------------------------------------------


        Am                            Fmaj7
E--------0--0-----------0--0------------0--0-----
B-----1--------3--1--3---------------1--------3--
G--2------------------------------2--------------
D------------------------------------------------
A------------------------------------------------
E------------------------------------------------


                    G6
E--------0-----------0--0-----------0--0---------
B--1--3-----------1--------3--1--3----------3--3-
G--------------2---------------------------------
D------------------------------------------------
A------------------------------------------------
E------------------------------------------------


                    Am
E-------------------------------8---------8------
B---3---3----1---0-------------------7---------6-
G--------------------2---2-----------------------
D------------------------------------------------
A------------------------------------------------
E------------------------------------------------


Am
Hired me on a greenhorn

              Fmaj7
Didn't know a rope from a horse

       G6
But I wanted to be a cowboy

      Am
So I took the job of course


The foreman he said "Son you gonna ride

      Fmaj7
At the end of my herd"

          G6
All the wranglers sat around in a circle

      Am
And nobody said a word

                 Fmaj7
'Cause there's a woman in my dreams

      G6
That keeps me alive

     Fmaj7
If I ever see her again

 E                                   Am
Lord I'll never ride drag on another cattle drive


Solo: Am Fmaj7 G6 Am   Am Fmaj7 G6 Am

           Am
There's a rumor goin' round

                  Fmaj7
That we're near a Kansas City town

                 G6
And when you're ridin drag on this cattle drive

                  Am
It takes 'bout a week for the word to get around

                 Fmaj7
'Cause there's a woman in my dreams

      G6
That keeps me alive

     Fmaj7
If I ever see her again

 E                                    Am
Lord I'll never ride drag on another cattle drive


Outro: Am Fmaj7 G6 Am


Marshall Tucker Band Tabs & ChordsMarshall Tucker Band Lyrics



Marshall Tucker Band Tabs, Tablatures, Chords, Lyrics

Buy Marshall Tucker Band CD
Marshall Tucker Band
Buy Marshall Tucker Band CD

  1. Marshall Tucker Band - 24 Hours At A Time Chords
  2. Marshall Tucker Band - Ab Song Chords
  3. Marshall Tucker Band - Am I That Kind Of Man Chords
  4. Marshall Tucker Band - Answer To Love Chords
  5. Marshall Tucker Band - Asking Too Much Of You Chords
  6. Marshall Tucker Band - Blue Ridge Mountain Sky Chords
  7. Marshall Tucker Band - Bound And Determined Chords
  8. Marshall Tucker Band - Cant You See Chords
  9. Marshall Tucker Band - Cattle Drive Chords
  10. Marshall Tucker Band - Change Is Gonna Come Chords
  11. Marshall Tucker Band - Desert Skies Chords
  12. Marshall Tucker Band - Dream Lover Chords
  13. Marshall Tucker Band - Driving You Out Of My Mind Chords
  14. Marshall Tucker Band - Everybody Needs Somebody Chords
  15. Marshall Tucker Band - Fire On The Mountain Chords
  16. Marshall Tucker Band - Fle Eagle Fly Chords
  17. Marshall Tucker Band - Foolish Dreaming Chords
  18. Marshall Tucker Band - Good Ole Hurtin' Chords
  19. Marshall Tucker Band - Heard It In A Love Song Chords
  20. Marshall Tucker Band - Holding On To You Chords
  21. Marshall Tucker Band - Ill Be Loving You Chords
  22. Marshall Tucker Band - In My Own Way Chords
  23. Marshall Tucker Band - It Takes Time Chords
  24. Marshall Tucker Band - Last Of The Singing Cowboys Chords
  25. Marshall Tucker Band - Life In A Song Chords
  26. Marshall Tucker Band - Losin You Chords
  27. Marshall Tucker Band - Love Is A Mystery Chords
  28. Marshall Tucker Band - Low Down Ways Chords
  29. Marshall Tucker Band - Never Started Loving You Chords
  30. Marshall Tucker Band - Never Trust A Stranger Chords
  31. Marshall Tucker Band - Now Shes Gone Chords
  32. Marshall Tucker Band - Property Line Chords
  33. Marshall Tucker Band - Running Like The Wind Chords
  34. Marshall Tucker Band - Searchin For A Rainbow Chords
  35. Marshall Tucker Band - Singing Rhymes Chords
  36. Marshall Tucker Band - Take The Highway Chords
  37. Marshall Tucker Band - Tell It To The Devil Chords
  38. Marshall Tucker Band - This Ol Cowboy Chords
  39. Marshall Tucker Band - Virginia Chords
  40. Marshall Tucker Band - Walkin The Streets Alone Chords
  41. Marshall Tucker Band - Windy City Blues Chords
  42. Marshall Tucker Band - You Dont Live Forever Chords
  43. Marshall Tucker Band - You Say You Love Me Chords



cowboylyrics.com
All lyrics are property and copyright of their owners. All lyrics provided for educational purposes only.