Marshall Tucker Band, Fire On The Mountain Tabs, Chords, Lyrics

Marshall Tucker Band, Fire On The Mountain Tabs, Chords

 SITE MENU
 Request Tabs
 Add/Correct Tabs
 DMCA Policy
 Country Sheet Music
0

BROWSE LYRICS AND TABS BY ARTIST/BAND NAME: SEARCH HERE:
A B C D E F G H I J K L M N O P Q R S T U V W X Y Z #
 

Marshall Tucker Band - Fire On The Mountain (Chords)


Marshall Tucker Band CD
Marshall Tucker Band Sheet music
Marshall Tucker Band Posters

Fire On The Mountain
The Marshall Tucker Band
>From the Album-"Searchin'For A Rainbow"
1975
Written by George McCorkle
Tabbed by Ray Scheidler 

Chords:
 
     Em      C       Am       G        D
E-----------------------------3--------2-------
B------------1--------1----------------3-------
G---------------------2----------------2-------
D-----2------2--------2------------------------
A-----2------3----------------2----------------
E-----------------------------3----------------


Intro:

   G                                      D
E-----19---19----19---19-----19---19-----------
B----------------------------------------17^19-
G-----19---19----19---19^21--19---19-----------
|                                              |
E------7----7-----7----7------7----7-----------
B-----------------------------------------5^7--
G------7----7-----7----7^9----7----7-----------


                                        Am
E--17-----------------------------17-----------
B------17^19--(17)----15---17^19--------15^17--
G----------------------------------------------
|                                              |
E---5------------------------------5-----------
B-------5^7----(5)-----3----5^7----------3^5---
G----------------------------------------------


                                   C
E-----------------------15---15---15-15--15-15-
B--15^17--(15)--15^17---15---15---15^17--15^17-
G----------------------------------------------
|                                              |
E------------------------3----3-----3-3---3-3--
B---3^5---(3)----3^5-----3----3-----3^5---3^5--
G----------------------------------------------


                      G
E--15-15--15-15------15-----(15)\(10)----------
B--15^17--15^17------15-----(15)\(10)^12-------
G----------------------------------------------
|                                              |
E---3-3----3-3--------3-------3----------------
B---3^5----3^5--------3-------3----------------
G----------------------------------------------
D----------------------------------------------
A----------------------------------------------
E-----------------------------------------3--2-


  Em (Rhythm Pattern Throughout)
E------------------------------------------------
B--------------------8------------8--------------
G-----------7-9--9-------7--9--9------7--9--9----
|                                                |
E-------0--0----------0--0---------0--0----------
B-------0--0----------0--0---------0--0----------
G-------0--0----------0--0---------0--0----------
D--------------0--2-----------------------0--2---
A------------------------------------------------
E--0--------------------------0------------------



E------------------------------------------------
B--8---------------------------------------------
G-----7---7/9-----------------7-------7/9--------
|                                                |
E--0--0--------0---0----------0--0---------0--0--
B--0--0--------0---0----------0--0---------0--0--
G--0--0--------0---0----------0--0---------0--0--
D----------------------0--2----------------------
A------------------------------------------------
E---------0---------------------------0----------


                  C                       
E------------------------------------------------
B----------------13-----------------(13)/(17)----
G----------------12-----------------(12)/(17)----
|                                                |
E---------0--0--------0--0-----------0--0--------
B---------0--0--------1--1-----------1--1--------
G---------0--0--------0--0-----------0--0--------
D--0--2-----------------------0--2---------------
A-----------------3--------------------------3---
E------------------------------------------------



E----------------------20------------------------
B------------------------------------------------
G----------------------19^21---------------(19)--
|                                                |
E--0--0----------0--0--------0--0----------0--0--
B--1--1----------1--1--------1--1----------1--1--
G--0--0----------0--0--------0--0----------0--0--
D---------0--2----------------------0--2---------
A-----------------------3------------------------
E------------------------------------------------



E------------------------------------------------
B------------------------------------------------
G--(19)\(14)-------------------------------------
|                                                |
E--0---0---------0---0---------------0---0-------
B--1---1---------1---1---------------1---1-------
G--0---0---------0---0---------------0---0-------
D--------------------------0--2------------------
A----------3-------------------------------------
E------------------------------------------------


  Em (Rhythm pattern)
E------------------------------------------------
B-----------8-----------8-----------8------------
G--7--9--9-----7--9--9-----7--9--9-----7--9--9---
D------------------------------------------------
A------------------------------------------------
E------------------------------------------------


                     C
E---------------------------------------------20-
B--8-----------------3--5--8--8-10--8--15-17--17-
G-----7--7/9--(9)\7--4--5--9--9-10--9--16-17-----
D------------------------------------------------
A------------------------------------------------
E------------------------------------------------


Em                          C
Took my family away from my Carolina home

Em                             C
Had dreams about the West and started to roam

Em                    C 
Six long months on a dust covered trail

Em        
They say heaven's at the end

        C
But so far it's been hell 

           G
And there's fire on the mountain

 D
Lightning in the air

Am
Gold in them hills

          C              
And it's waiting for me 

 Em              C
There (Riff #1 Played Twice)
E------------------------------------------------
B------------------------------------------------
G-4---2---0-------------------------0----2---4---
D------------4---2----2----2---4-----------------
A------------------------------------------------
E------------------------------------------------
|                                                |
E------------------------------------------------
B------------------------------------------------
G-4---2-----------------------------0----2---4---
D-------2/4--2-------------2---4-----------------
A----------------3----3--------------------------
E------------------------------------------------


   Em              C
E------------------------------------------------
B------------------------------------------------
G--4--2---0--------------------0---2----2---4----
D--------------4---2----2--4---------------------
A------------------------------------------------
E------------------------------------------------
|                                                |
E------------------------------------------------
B------------------------------------------------
G--4--2------------------------0---2----2---4----
D-------2/4----2--------2--4---------------------
A------------------3-----------------------------
E------------------------------------------------


Em                          C
We were diggin' and siftin' from five to five

Em                           C
Sellin' everything we found just to stay alive

Em                          C
Gold flowed free like the whiskey in the bars

Em                 
Sinnin' was the big thing lord 

     C
And Satan was the star

             G
And there's fire on the mountain

 D
Lightning in the air

Am
Gold in them hills 

          C              Em  (With Riff #1) C
And it's waiting for me there


 Em
E------------------------------------------------
B----------------------------------------------8-
G-------7---9---7--9--9-----7--9--9---7--9--9--7-
D------------------------------------------------
A------------------------------------------------
E------------------------------------------------

   C                                G
E----------15------------------------------------
B--8-----------15---------------------------15---
G--7--9------------14^16-(14)-12----14^16--------
D------------------------------------------------
A------------------------------------------------
E------------------------------------------------


E------------------------------------------------
B----------------------------15------------------
G--14^16--(14)--12---14^16-------14^16--(14)\12--
D------------------------------------------------
A------------------------------------------------
E------------------------------------------------

   D
E------------------------------------------------
B--12---------10----------10----------10/12------
G-------12----------11-----------11----------14--
D------------------------------------------------
A------------------------------------------------
E------------------------------------------------

              Am
E------------------15--15----------------15------
B--15--15^17-(15)-----------15--15^17----15^17---
G------------------------------------------------
D------------------------------------------------
A------------------------------------------------
E------------------------------------------------

                   C                  G
E--------------------------------15---19---19/20-
B--15^17-(15)-12--15^17---15^17-------15---15/17-
G------------------------------------------------
D------------------------------------------------
A------------------------------------------------
E------------------------------------------------

                                      D
E--19---20\19---17----19----15--------12^14-(12)-
B--15---17\15---15----19----15----15-------------
G---------------------------------16-------------
D------------------------------------------------
A------------------------------------------------
E------------------------------------------------

                                        Am
E--5---7--5--------------------------------------
B------------------8---------------------8-------
G-------------7^9-----7^9-(7)--5---7^9-------7^9-
D------------------------------------------------
A------------------------------------------------
E------------------------------------------------

                              C              Em
E------------------------------------------------
B--8-----------------------0---------8---8---12--
G-----5--7--7^9--(7)^9-(7)----9---9--9---9----9--
D----------------------------10--10--------------
A------------------------------------------------
E------------------------------------------------

(Flute Solo)

Em C  Em C  Em C  Em C


Em                        C
Dance hall girls were the evening treat

Em                   
Empty cartridges and blood lined 

     C
The gutters of the street

Em                          C
Men were shot down for the sake of fun

Em                                  C
Or just to hear the noise of their forty-four guns

             G
And there's fire on the mountain

 D
Lightning in the air

Am
Gold in them hills

          C              Em (with Riff #1)
And it's waiting for me there

Em                C
Now my widow she weeps by my grave

Em    
Tears flow free for her man

C
She couldn't save
E----------0-1-3--1--0-------------------------
B----1--3---------------3--0--1--0-------------
G----------------------------------------------


Shot down in cold blood
E----------------------------------------------
B----0-----------------------------------------
G--2---2-0-------------------------------------
D-----------2----------------------------------

      C
By a gun that carried pain
E----------------------------------------------
B--------------------0--1--0---0---0-----------
G---------------0--2---------2---2----2---0--2-
D----------------------------------------------

Em                             C
All for a useless and no good worthless claim

             G
And there's fire on the mountain

 D
Lightning in the air

Am
Gold in them hills 

          C               G
And it's waiting for me there

 G
Fire on the mountain

 D
Lightning in the air

Am
Gold in them hills

          C              Em     C
And it's waiting for me there
E----------------------------------------------
B------------------------15^17----15----12-----
G----------------------------------------------

                 G
Waiting for me there
E--------------------------------10------------
B-----15^17-----15--(15)\10------10^12---------
G----------------------------------------------
D----------------------------------------------
A----------------------------------------------
E----------------------------------------------



Marshall Tucker Band Tabs & ChordsMarshall Tucker Band Lyrics



Marshall Tucker Band Tabs, Tablatures, Chords, Lyrics

Buy Marshall Tucker Band CD
Marshall Tucker Band
Buy Marshall Tucker Band CD

  1. Marshall Tucker Band - 24 Hours At A Time Chords
  2. Marshall Tucker Band - Ab Song Chords
  3. Marshall Tucker Band - Am I That Kind Of Man Chords
  4. Marshall Tucker Band - Answer To Love Chords
  5. Marshall Tucker Band - Asking Too Much Of You Chords
  6. Marshall Tucker Band - Blue Ridge Mountain Sky Chords
  7. Marshall Tucker Band - Bound And Determined Chords
  8. Marshall Tucker Band - Cant You See Chords
  9. Marshall Tucker Band - Cattle Drive Chords
  10. Marshall Tucker Band - Change Is Gonna Come Chords
  11. Marshall Tucker Band - Desert Skies Chords
  12. Marshall Tucker Band - Dream Lover Chords
  13. Marshall Tucker Band - Driving You Out Of My Mind Chords
  14. Marshall Tucker Band - Everybody Needs Somebody Chords
  15. Marshall Tucker Band - Fire On The Mountain Chords
  16. Marshall Tucker Band - Fle Eagle Fly Chords
  17. Marshall Tucker Band - Foolish Dreaming Chords
  18. Marshall Tucker Band - Good Ole Hurtin' Chords
  19. Marshall Tucker Band - Heard It In A Love Song Chords
  20. Marshall Tucker Band - Holding On To You Chords
  21. Marshall Tucker Band - Ill Be Loving You Chords
  22. Marshall Tucker Band - In My Own Way Chords
  23. Marshall Tucker Band - It Takes Time Chords
  24. Marshall Tucker Band - Last Of The Singing Cowboys Chords
  25. Marshall Tucker Band - Life In A Song Chords
  26. Marshall Tucker Band - Losin You Chords
  27. Marshall Tucker Band - Love Is A Mystery Chords
  28. Marshall Tucker Band - Low Down Ways Chords
  29. Marshall Tucker Band - Never Started Loving You Chords
  30. Marshall Tucker Band - Never Trust A Stranger Chords
  31. Marshall Tucker Band - Now Shes Gone Chords
  32. Marshall Tucker Band - Property Line Chords
  33. Marshall Tucker Band - Running Like The Wind Chords
  34. Marshall Tucker Band - Searchin For A Rainbow Chords
  35. Marshall Tucker Band - Singing Rhymes Chords
  36. Marshall Tucker Band - Take The Highway Chords
  37. Marshall Tucker Band - Tell It To The Devil Chords
  38. Marshall Tucker Band - This Ol Cowboy Chords
  39. Marshall Tucker Band - Virginia Chords
  40. Marshall Tucker Band - Walkin The Streets Alone Chords
  41. Marshall Tucker Band - Windy City Blues Chords
  42. Marshall Tucker Band - You Dont Live Forever Chords
  43. Marshall Tucker Band - You Say You Love Me Chords



cowboylyrics.com
All lyrics are property and copyright of their owners. All lyrics provided for educational purposes only.