Neal Mccoy, No Doubt About It Tabs, Chords, Lyrics

Neal Mccoy, No Doubt About It Tabs, Chords

 SITE MENU
 Request Tabs
 Add/Correct Tabs
 DMCA Policy
 Country Sheet Music
0

BROWSE LYRICS AND TABS BY ARTIST/BAND NAME: SEARCH HERE:
A B C D E F G H I J K L M N O P Q R S T U V W X Y Z #
 

Neal Mccoy - No Doubt About It (Chords)


Neal Mccoy CD
Neal Mccoy Sheet music
Neal Mccoy Posters

No Doubt About It
By:  Neil McCoy

Key of E
          A       E         B       E      A       E       B
Intro:  |----------------------------------------------------
        |----------------------------------------------------
        |----------------------------------------------------
        |----------------------------------------------------
/=slide |---------7---7-----9(10)-9-7--7h9---------7---7-9---
        |-5-5-7/9---9---9-7----------------5-5-7/9---9-----7-




(No chord)      A                    E
Just like every lock's got to have a key
            B                     E
Every river flows lookin' for the sea
                     A                          E
And when you plant a seed, it reaches for the sky
                        B                 E
That's just the way it is, nobody wonders why
                    A                           E            B
Like coffee needs a cup you know that it ain't much good without it
                      A                 E
We were meant to be together, no doubt about it.

                    A               E
Like a hammer and a nail, socks and shoes
                B                       E
We go hand in hand, like a rhythm and blues
                A                   E
What good is a man who hasn't got a dream
                   B            E
'Bout as good as a car with no gasoline
                            A                     E                 B
You're the one I'm dreamin' of, got to have your love, can't live
without it
                        A               E
We were meant to be together, no doubt about it.
         A              E
No there ain't no doubt about it.

B               E               A       E
Something was missing it was making me blue
    C#m         A         B
But all I ever needed was you.

(No chord)      A                    E
Just like every lock's got to have a key
            B                     E
Every river flows lookin' for the sea
                     A                          E
And when you plant a seed, it reaches for the sky
                        B                    E
That's just the way it is, girl with you and I
                    A                           E            B
Like coffee needs a cup you know that it ain't much good without it
                      A                 E
We were meant to be together, no doubt about it.
         A              E
No there ain't no doubt about it.

  A       E         B       E      A       E       B             E
|------------------------------------------------------------------
|------------------------------------------------------------------
|------------------------------------------------------------------
|------------------------------------------------------------------
|---------7---7-----9(10)-9-7--7h9---------7---7-9-----------------
|-5-5-7/9---9---9-7----------------5-5-7/9---9-----9(10)-7-9-3(4)-0

            A         E            B               A                  E

|---------------------------------------------------------------------------
|------------------------------------------------------------------------12-
|----------------------9-8--------------------------------------------11----
|--------------------9-----11-9-11---------7-6---------------------11-------
|-------------7-9/11---------------9-9-7-9-----9-7---7-9(10)-7---7----------
|-3/5-5-5-7/9--------------------------------------9-----------9------------

                    A               E
Like a hammer and a nail, socks and shoes
                B                       E
We go hand in hand, like a rhythm and blues
                A                   E
What good is a man who hasn't got a dream
                   B            E
'Bout as good as a car with no gasoline
                            A                     E                 B
You're the one I'm dreamin' of, got to have your love, can't live
without it
                        A               E
We were meant to be together, no doubt about it.

  A       E         B       E      A       E       B             E
|---------------------------------------------------------------------
|---------------------------------------------------------------------
|---------------------------------------------------------------------
|---------------------------------------------------------------------
|---------7---7-----9(10)-9-7--7h9---------7---7-9-------------6------
|-5-5-7/9---9---9-7----------------5-5-7/9---9-----9(10)-7-9-9---5\3-0

            A         E     B      A

|-----------------------------------------------------------------------------
|-----------------------------------------------------------------------------
|--------------------11(12)-11-11-9-11--------11(12)-11-9---------------------
|--------------------------------------11-9\2-------------11-9----9-----------
|-------------7....9-------------------------------------------11---11-9---9--
|-3/5-5-5-7/9------------------------------------------------------------11--11

              A       E      B         E      A      E B           E

|-----------------------------------------------------------------------------
|-----------------------------------------------------------------------------
|-----------------------------------------------9-9-9-9-8-9-9-----------------
|-----------------------------------------------------------------------------
|-------------7---7-9-------7-----------------7-------------------------------
|-9-7-5-5-7/9---9-----7-7-9---9-3(4)--5-5-7/9---------------------------------

after this it fades into something I don't know
Have fun-let me know about any revisions please!
                                                        Jason A.
Wendtland


Mccoy Neal Tabs & Chords



Mccoy Neal Tabs, Tablatures, Chords, Lyrics

Buy Mccoy Neal CD
Mccoy Neal
Buy Mccoy Neal CD

  1. Mccoy Neal - For A Change Chords
  2. Mccoy Neal - I Was Chords
  3. Mccoy Neal - I Was 2 Chords
  4. Mccoy Neal - No Doubt About It Chords
  5. Mccoy Neal - The Shake Chords
  6. Mccoy Neal - Theyre Playin Our Song Chords
  7. Mccoy Neal - Wink Chords
  8. Mccoy Neal - You Can Tell Me Goodbye Chords
  9. Mccoy Neal - You Can Tell Me Goodbye 2 Chords
  10. Mccoy Neal - You Gotta Love That Chords



cowboylyrics.com
All lyrics are property and copyright of their owners. All lyrics provided for educational purposes only.