, I'm Gonna Miss You Girl (tab) Tabs, Chords, Lyrics

, I'm Gonna Miss You Girl (tab) Tabs, Chords

 SITE MENU
 Request Tabs
 Add/Correct Tabs
 DMCA Policy
 Country Sheet Music
0

BROWSE LYRICS AND TABS BY ARTIST/BAND NAME: SEARCH HERE:
A B C D E F G H I J K L M N O P Q R S T U V W X Y Z #
 

- I'm Gonna Miss You Girl (tab) (Tabs)


CD
 Sheet music
Posters
Michael Martin Murphy
"I'm Gonna Miss You Girl"
"River of Time" Album

*sorry this is kinda choppy to make it fit

CAPO 3 (positions relative)
Intro:

  (D)
e--0h2---------0----2----2-|--5s7----3--5--7--7--7-
B--3------3----------------|-----------------------
G--2-----------0----2----2-|--5s7----4--5--7--7--7-
D--0------4----------------|-----------------------
A--------------------------|-----------------------
E--------------------------|-----------------------

e|--7--9--10----5--5--2--2-------
B|---------7----7--7--3--3--3--3-
G|--7--9--------------------2--2-
D|-------------------------------
A|-------------------------------
E|-------------------------------

e--5--5--3h5-
B------------
G--7--5--3h5-
D------------
A------------
E------------



Michael Martin Murphy Tabs & Chords



Michael Martin Murphy Tabs, Tablatures, Chords, Lyrics

Buy Michael Martin Murphy CD
Michael Martin Murphy
Buy Michael Martin Murphy CD

  1. Michael Martin Murphy - A Face In The Crowd Chords
  2. Michael Martin Murphy - Carolina In The Pines 2 Tabs
  3. Michael Martin Murphy - Children Of The Wild World (w/intro Tab) Chords
  4. Michael Martin Murphy - From The Word Go (w/intro Tab) Chords
  5. Michael Martin Murphy - Geronimo's Cadillac (intro) Tabs
  6. Michael Martin Murphy - I'm Gonna Miss You Girl (tab) Tabs
  7. Michael Martin Murphy - I'm Gonna Miss You, Girl Chords
  8. Michael Martin Murphy - Let the Cowboy Dance Chords
  9. Michael Martin Murphy - Love By Morning Tabs
  10. Michael Martin Murphy - Talking To The Wrong Man Chords
  11. Michael Martin Murphy - Texas Morning Chords
  12. Michael Martin Murphy - The River Of Time Chords
  13. Michael Martin Murphy - Vanishing Breed Chords
  14. Michael Martin Murphy - What Am I Doin Here Chords
  15. Michael Martin Murphy - What's Forever For (2) Chords
  16. Michael Martin Murphy - When The Work's All Done This Fall Chords
  17. Michael Martin Murphy - Wildfire (easy) Chords
  18. Michael Martin Murphy - Wildfire(capo) Chords



cowboylyrics.com
All lyrics are property and copyright of their owners. All lyrics provided for educational purposes only.