Justin Moore, I Could Kick Your Ass (intro) Tabs, Chords, Lyrics

Justin Moore, I Could Kick Your Ass (intro) Tabs, Chords

 SITE MENU
 Request Tabs
 Add/Correct Tabs
 DMCA Policy
 Country Sheet Music
0

BROWSE LYRICS AND TABS BY ARTIST/BAND NAME: SEARCH HERE:
A B C D E F G H I J K L M N O P Q R S T U V W X Y Z #
 

Justin Moore - I Could Kick Your Ass (intro) (Chords)


Justin Moore CD
Justin Moore Sheet music
Justin Moore Posters
e|--------------------------------------------------------------------------|
B|--------------3----------------------3------------------------------------|
G|--------------2----------------------2------------0-0-0-0-----------------|
D|------0-3b-3b-0--------------0-3b-3b-0--------------------4-2-------------|
A|--0-2--------------------0-2-----------2----------------------0-----------|
E|--------------------------------------------------------------------------|

e|--------------------------------
B|--------------------------------
G|--------------------------------
D|--------------------------------
A|--0h2-0h2-0--------4-2-0--------
E|------------3b--0---------3b-0--


Moore Justin Tabs & ChordsMoore Justin Lyrics



Moore Justin Tabs, Tablatures, Chords, Lyrics

Buy Moore Justin CD
Moore Justin
Buy Moore Justin CD

  1. Moore Justin - Back That Thing Up Tabs
  2. Moore Justin - Backwoods Chords
  3. Moore Justin - Bait A Hook Chords
  4. Moore Justin - Bed Of My Chevy Chords
  5. Moore Justin - Beer Chords
  6. Moore Justin - Big Ass Headache Chords
  7. Moore Justin - Country Radio Chords
  8. Moore Justin - Dirt Road Kid Chords
  9. Moore Justin - Flyin' Down A Back Road Chords
  10. Moore Justin - For Some Ol' Redneck Reason Chords
  11. Moore Justin - Good Ole American Way Chords
  12. Moore Justin - Grandpa Chords
  13. Moore Justin - Guns Chords
  14. Moore Justin - Hank It Chords
  15. Moore Justin - Heaven Ain't That Far Away Chords
  16. Moore Justin - How I Got To Be This Way Chords
  17. Moore Justin - I Could Kick Your Ass Chords
  18. Moore Justin - I Could Kick Your Ass (intro) Chords
  19. Moore Justin - I Could Kick Your Ass (no capo) Chords
  20. Moore Justin - If Heaven Wasnt So Far Away Chords
  21. Moore Justin - If You Don't Like My Twang Chords
  22. Moore Justin - In The Bed Of My Chevy Chords
  23. Moore Justin - Lettin' The Night Roll Chords
  24. Moore Justin - Like There No Tomorrow (intro) Chords
  25. Moore Justin - Like There's No Tomorrow Chords
  26. Moore Justin - My Kind Of Woman Chords
  27. Moore Justin - One Dirt Road Chords
  28. Moore Justin - Only Place I Call Home Chords
  29. Moore Justin - Outlaws Like Me Chords
  30. Moore Justin - Point At You Tabs
  31. Moore Justin - Point At You Chords
  32. Moore Justin - Redneck Side Chords
  33. Moore Justin - Run Out Of Honky Tonks Chords
  34. Moore Justin - Small Town Usa Chords
  35. Moore Justin - Small Town Usa (solo) Chords
  36. Moore Justin - That's How I Got To Be This Way Chords
  37. Moore Justin - This Is Nra Country Chords
  38. Moore Justin - This Kind Of Town Chords
  39. Moore Justin - Till My Last Day Chords
  40. Moore Justin - Till' My Last Day (lead) Chords
  41. Moore Justin - Wheels Chords



cowboylyrics.com
All lyrics are property and copyright of their owners. All lyrics provided for educational purposes only.