Justin Moore, Point At You Tabs, Chords, Lyrics

Justin Moore, Point At You Tabs, Chords

 SITE MENU
 Request Tabs
 Add/Correct Tabs
 DMCA Policy
 Country Sheet Music
0

BROWSE LYRICS AND TABS BY ARTIST/BAND NAME: SEARCH HERE:
A B C D E F G H I J K L M N O P Q R S T U V W X Y Z #
 

Justin Moore - Point At You (Tabs)


Justin Moore CD
Justin Moore Sheet music
Justin Moore Posters
E|--8-8-8-8-8-8-8-8-----------------8-8-8-8-8-8-8-8-------------------|
B|--8-8-8-8-8-8-8-8-8-8-8-8-8-8-8-8-8-8-8-8-8-8-8-8-8-8-8-8-8-8-8-8---|
G|------------------7-7-7-7-7-7-7-7-----------------7-7-7-7-7-7-7-7---|
D|--------------------------------------------------------------------|
A|--------------------------------------------------------------------|
E|--------------------------------------------------------------------|


E|-----------------------------------------------------------------|
B|----------3-3-5----------1-1-3-------3-3-5-----------------------|
G|-2h3-2-0---------2-0------------2-0---------2-0---2-2-0-3-2-0----|
D|-------------------- 2-0-----------------------------------------|
A|-----------------------------------------------------------------|
E|-----------------------------------------------------------------|


Moore Justin Tabs & ChordsMoore Justin Lyrics



Moore Justin Tabs, Tablatures, Chords, Lyrics

Buy Moore Justin CD
Moore Justin
Buy Moore Justin CD

  1. Moore Justin - A Long Way From Home Chords
  2. Moore Justin - Back That Thing Up Tabs
  3. Moore Justin - Backwoods Chords
  4. Moore Justin - Bait A Hook Chords
  5. Moore Justin - Bed Of My Chevy Chords
  6. Moore Justin - Beer Chords
  7. Moore Justin - Big Ass Headache Chords
  8. Moore Justin - Country Radio Chords
  9. Moore Justin - Dirt Road Kid Chords
  10. Moore Justin - Flyin' Down A Back Road Chords
  11. Moore Justin - For Some Ol' Redneck Reason Chords
  12. Moore Justin - Good Ole American Way Chords
  13. Moore Justin - Grandpa Chords
  14. Moore Justin - Guns Chords
  15. Moore Justin - Hank It Chords
  16. Moore Justin - Heaven Ain't That Far Away Chords
  17. Moore Justin - How I Got To Be This Way Chords
  18. Moore Justin - I Could Kick Your Ass Chords
  19. Moore Justin - I Could Kick Your Ass (intro) Chords
  20. Moore Justin - I Could Kick Your Ass (no capo) Chords
  21. Moore Justin - I'd Want It To Be Yours Chords
  22. Moore Justin - If Heaven Wasnt So Far Away Chords
  23. Moore Justin - If You Don't Like My Twang Chords
  24. Moore Justin - In The Bed Of My Chevy Chords
  25. Moore Justin - Lettin' The Night Roll Chords
  26. Moore Justin - Like There No Tomorrow (intro) Chords
  27. Moore Justin - Like There's No Tomorrow Chords
  28. Moore Justin - My Kind Of Woman Chords
  29. Moore Justin - Off The Beaten Path Chords
  30. Moore Justin - Old Habits Chords
  31. Moore Justin - One Dirt Road Chords
  32. Moore Justin - Only Place I Call Home Chords
  33. Moore Justin - Outlaws Like Me Chords
  34. Moore Justin - Point At You Tabs
  35. Moore Justin - Point At You Chords
  36. Moore Justin - Redneck Side Chords
  37. Moore Justin - Run Out Of Honky Tonks Chords
  38. Moore Justin - Small Town Usa Chords
  39. Moore Justin - Small Town Usa (solo) Chords
  40. Moore Justin - That's How I Got To Be This Way Chords
  41. Moore Justin - This Is Nra Country Chords
  42. Moore Justin - This Kind Of Town Chords
  43. Moore Justin - Till My Last Day Chords
  44. Moore Justin - Till' My Last Day (lead) Chords
  45. Moore Justin - Wheels Chords



cowboylyrics.com
All lyrics are property and copyright of their owners. All lyrics provided for educational purposes only.