Justin Moore, Small Town Usa (solo) Tabs, Chords, Lyrics

Justin Moore, Small Town Usa (solo) Tabs, Chords

 SITE MENU
 Request Tabs
 Add/Correct Tabs
 DMCA Policy
 Country Sheet Music
0

BROWSE LYRICS AND TABS BY ARTIST/BAND NAME: SEARCH HERE:
A B C D E F G H I J K L M N O P Q R S T U V W X Y Z #
 

Justin Moore - Small Town Usa (solo) (Chords)


Justin Moore CD
Justin Moore Sheet music
Justin Moore Posters
Tuning is down one half-step (Eb-Ab-Db-Gb-Bb-Eb).
Song is played in the key of Gb maj but the solo here is done with an E min
pentatonic (which is really an Eb min because of the tuning.)  The chord
progression is basically 1-5-4 (G-D-C), 1-5-4-5 (G-D-C-D) with some
changes thrown in here and there.

E----------------------------------------------------------------------------------------------
A---5---7------------7-------------------------------------------------------------------------
D-----------5---5-------5---7 s 9-----9-----9---------------------------9---7---7---7---7------
G----------------------------------7-----7-------7---9---7---7---9---7----------7--------------
D--------------------------------------------------------8---8---------------------------------
e----------------------------------------------------------------------------------------------

E--------------------------------------------------------------------------------------------------
A--------------------------------------------------------------------------------------------------
D--s>9---------------------------------------------------------------------------------------------
G-----7----s>9-------------------------------------------------------------16----------1614s12--
D-------------8---s>12------s>17-----------------------------17-----1715-----17---15--------------
e---------------------10--------15-------17--b17^(19)---15------15--------------------------------


Moore Justin Tabs & ChordsMoore Justin Lyrics



Moore Justin Tabs, Tablatures, Chords, Lyrics

Buy Moore Justin CD
Moore Justin
Buy Moore Justin CD

  1. Moore Justin - A Long Way From Home Chords
  2. Moore Justin - Back That Thing Up Tabs
  3. Moore Justin - Backwoods Chords
  4. Moore Justin - Bait A Hook Chords
  5. Moore Justin - Bed Of My Chevy Chords
  6. Moore Justin - Beer Chords
  7. Moore Justin - Big Ass Headache Chords
  8. Moore Justin - Country Radio Chords
  9. Moore Justin - Dirt Road Kid Chords
  10. Moore Justin - Flyin' Down A Back Road Chords
  11. Moore Justin - For Some Ol' Redneck Reason Chords
  12. Moore Justin - Good Ole American Way Chords
  13. Moore Justin - Grandpa Chords
  14. Moore Justin - Guns Chords
  15. Moore Justin - Hank It Chords
  16. Moore Justin - Heaven Ain't That Far Away Chords
  17. Moore Justin - Home Sweet Home Chords
  18. Moore Justin - How I Got To Be This Way Chords
  19. Moore Justin - I Could Kick Your Ass Chords
  20. Moore Justin - I Could Kick Your Ass (intro) Chords
  21. Moore Justin - I Could Kick Your Ass (no capo) Chords
  22. Moore Justin - I'd Want It To Be Yours Chords
  23. Moore Justin - If Heaven Wasnt So Far Away Chords
  24. Moore Justin - If You Don't Like My Twang Chords
  25. Moore Justin - In The Bed Of My Chevy Chords
  26. Moore Justin - Lettin' The Night Roll Chords
  27. Moore Justin - Like There No Tomorrow (intro) Chords
  28. Moore Justin - Like There's No Tomorrow Chords
  29. Moore Justin - My Kind Of Woman Chords
  30. Moore Justin - Off The Beaten Path Chords
  31. Moore Justin - Old Habits Chords
  32. Moore Justin - One Dirt Road Chords
  33. Moore Justin - Only Place I Call Home Chords
  34. Moore Justin - Outlaws Like Me Chords
  35. Moore Justin - Point At You Tabs
  36. Moore Justin - Point At You Chords
  37. Moore Justin - Redneck Side Chords
  38. Moore Justin - Run Out Of Honky Tonks Chords
  39. Moore Justin - Small Town Usa Chords
  40. Moore Justin - Small Town Usa (solo) Chords
  41. Moore Justin - That's How I Got To Be This Way Chords
  42. Moore Justin - This Is Nra Country Chords
  43. Moore Justin - This Kind Of Town Chords
  44. Moore Justin - Till My Last Day Chords
  45. Moore Justin - Till' My Last Day (lead) Chords
  46. Moore Justin - Wheels Chords



cowboylyrics.com
All lyrics are property and copyright of their owners. All lyrics provided for educational purposes only.