Kip Moore, Hey Pretty Girl (lead) Tabs, Chords, Lyrics

Kip Moore, Hey Pretty Girl (lead) Tabs, Chords

 SITE MENU
 Request Tabs
 Add/Correct Tabs
 DMCA Policy
 Country Sheet Music
0

BROWSE LYRICS AND TABS BY ARTIST/BAND NAME: SEARCH HERE:
A B C D E F G H I J K L M N O P Q R S T U V W X Y Z #
 

Kip Moore - Hey Pretty Girl (lead) (Chords)


Kip Moore CD
Kip Moore Sheet music
Kip Moore Posters
Intro: D

E[-------------------------------------------------------------------------------]
B[-10/12--10--7---7h8--10--7-----10/12--10--7------7h8--10--7------10(let ring)--]
G[----------------7----7---7-----------------------7----7---7----10--------------]
D[-------------------------------------------------------------------------------]
A[-------------------------------------------------------------------------------]
E[-------------------------------------------------------------------------------]
D
Hey pretty girl, won't you look my way
       Bm
Love's in the air tonight
A                       G
Bet you could make this ol' boy stay
G                          A       D..
Hey pretty girl, won't you look my way

D
Hey pretty girl, can I have this dance
E[-----------------------------------------------------------]
B[--------7--------------------------------------------------]
G[---9--------7----------------------------------------------]
D[---7---7---7-----------------------------------------------]
A[-----------------------------------------------------------]
E[-----------------------------------------------------------]

	Bm
And the next one after that
E[-----------------------------------------------------------]
B[--------7--------------------------------------------------]
G[---7h9-----7-----------------------------------------------]
D[---7----7--7-----------------------------------------------]
A[-----------------------------------------------------------]
E[-----------------------------------------------------------]
	A                      		 G
Gonna make your mind there's a real good chance
G                          A       D..
Hey pretty girl, can I have this chance

Repeat Intro:


Hey pretty girl, it feels so right
Just like it's meant to be
All wrapped up in my arms so tight
Hey pretty girl, it feels so right

Chorus:
A                G       D..  
Life's a lonely, winding ride
E[-----------------------------------------------------------]
B[--3/75/7(let ring)----------------------------------------]
G[-----------------------------------------------------------]
D[-----------------------------------------------------------]
A[-----------------------------------------------------------]
E[-----------------------------------------------------------]
F#m                 G       D.. 
Better have the right one by your side
E[---2/52h3p2-----------------------------------------------]
B[-------------------3---------------------------------------]
G[-----------------------------------------------------------]
D[-----------------------------------------------------------]
A[-----------------------------------------------------------]
E[-----------------------------------------------------------]
A               G        Bm 
Happiness don't drag its feet
A
Time moves faster than anything
E[--14---------------------------------------------------------]
B[------17--1514h15-------------------------------------------]
G[------------------14(let ring)-------------------------------]
D[-------------------------------------------------------------]
A[-------------------------------------------------------------]
E[-------------------------------------------------------------]



Hey pretty girl, wanna take you home
E[-----------------------------------------------------------]
B[-----------------------------------------------------------]
G[---9/11-9--77/9\7-----------------------------------------]
D[-----------77/9\7-----------------------------------------]
A[-----------------------------------------------------------]
E[-----------------------------------------------------------]
My momma's gonna love you
E[-----------------------------------------------------------]
B[-----------------------------------------------------------]
G[--7/9\7----------------------------------------------------]
D[--7/9\77/9------------------------------------------------]
A[-----------------------------------------------------------]
E[-----------------------------------------------------------]
She'll make me sleep on the couch, I know
But hey pretty girl, wanna take you home

Hey pretty girl, lets build some dreams
A house on a piece of land
Plant some roots and some apple trees
Hey pretty girl, lets build some dreams

Chorus

Hey pretty girl, you did so good
Our baby's got your eyes
And a fighters heart like I knew she would
Hey pretty girl, you did so good


Hey pretty girl when I see the light
E[-----------------------------------------------------------]
B[--1517/19(let ring)---------------------------------------]
G[-----------------------------------------------------------]
D[-----------------------------------------------------------]
A[-----------------------------------------------------------]
E[-----------------------------------------------------------]
When it's my time to go
E[-----------------------------------------------------------]
B[-14h15p14--------------------------------------------------]
G[-------------14--------------------------------------------]
D[-----------------------------------------------------------]
A[-----------------------------------------------------------]
E[-----------------------------------------------------------]
I'm gonna thank the Lord for a real good life
E[-----------------------------------------------------------]
B[-------8p7h8-----------------------------------------------]
G[---7-------------------------------------------------------]
D[-----------------------------------------------------------]
A[-----------------------------------------------------------]
E[-----------------------------------------------------------]
Pretty little girl and a beautiful wife
E[-----------------------------------------------------------]
B[-3--5/7(let ring)------------------------------------------]
G[-----------------------------------------------------------]
D[-----------------------------------------------------------]
A[-----------------------------------------------------------]
E[-----------------------------------------------------------]


Moore Kip Tabs & ChordsMoore Kip Lyrics



Moore Kip Tabs, Tablatures, Chords, Lyrics

Buy Moore Kip CD
Moore Kip
Buy Moore Kip CD

  1. Moore Kip - Beer Money Chords
  2. Moore Kip - Beer Money (intro) Chords
  3. Moore Kip - Crazy One More Time Chords
  4. Moore Kip - Crazy One More Time v2 Chords
  5. Moore Kip - Drive Me Crazy Chords
  6. Moore Kip - Everything But You Chords
  7. Moore Kip - Faith When I Fall Chords
  8. Moore Kip - Fly Again Chords
  9. Moore Kip - Hey Pretty Girl Chords
  10. Moore Kip - Hey Pretty Girl (lead) Chords
  11. Moore Kip - Mary Was The Marryin Kind Chords
  12. Moore Kip - Motorcycle Chords
  13. Moore Kip - Reckless (Still Growing Up) Chords
  14. Moore Kip - Somethin Bout A Truck Chords
  15. Moore Kip - Up All Night Chords
  16. Moore Kip - Young Love Chords
  17. Moore Kip - Young Love v2 Chords



cowboylyrics.com
All lyrics are property and copyright of their owners. All lyrics provided for educational purposes only.