, Bang Bang( My Baby Shot Me Down) Tabs, Chords, Lyrics

, Bang Bang( My Baby Shot Me Down) Tabs, Chords

 SITE MENU
 Request Tabs
 Add/Correct Tabs
 DMCA Policy
 Country Sheet Music
0

BROWSE LYRICS AND TABS BY ARTIST/BAND NAME: SEARCH HERE:
A B C D E F G H I J K L M N O P Q R S T U V W X Y Z #
 

- Bang Bang( My Baby Shot Me Down) (Tabs)


CD
 Sheet music
Posters

GUITAR CLEAN w/heavy trem

INTRO
 
  (Em)            Am               B5

  Gtr I
|---------------|----------------|-------------------|
|-0-----0-------|-^1-----1-0-----|-------------------|
|-----0---2--0--|-^2---2------2--|-^4-----5-4-2------|
|---2-----------|-^2-2-----------|-^4-4---------5-4--|
|---------------|-^0-------------|-^2---2------------|
|---------------|----------------|-------------------|


 I was five and he was six
  
  (Em)                          Em  Em/D    D       B/F#
|-----------0-(0)----(0)-|-(0)--^0--^0----|-------------|------------------|
|---------0--------------|------^0--^0----|-^7------^4--|-(4)----(4)-------|
|-------0----------------|------^0--^0----|-^7------^4--|-(4)----(4)-------|
|-----2------------------|------^2--^0----|-^7------^4--|-(4)----(4)-------|
|---2--------------------|----------------|-^5----------|------------------|
|-0----------------------|----------------|-------------|--------------7\--|


 bang bang...
  (Em)                              (D)                (B)
|----------0-------|------------0-----------|------------------|
|--------0---------|----------0-----------3-|-(3)------------4-|
|------0-----------|--------0-----------2---|--------------4---|
|----2-------------|------2-----------4-----|------------4-----|
|------------------|--------------7-5-------|--------5S2-------|
|-0-----------7\-0-|-(0)--------------------|------------------|


  (Em)            Am               B5
|---------------|----------------|------------------|
|-0-----0-------|-^1-----1-0-----|------------------|
|-----0---2--0--|-^2---2------2--|-^4-----5-4-2-----|
|---2-----------|-^2-2-----------|-^4-4---------5-4-|
|---------------|-^0-------------|-^2---2-----------|
|---------------|----------------|------------------|


 seasons came...

  (Em)                          Em/DEm      D       B/F#
|-----------0-(0)----(0)-|-(0)--^0--^0----|-------------|------------------|
|---------0--------------|------^0--^0----|-^7------^4--|-(4)----(4)-------|
|-------0----------------|------^0--^0----|-^7------^4--|-(4)----(4)-------|
|-----2------------------|------^2--^0----|-^7------^4--|-(4)----(4)-------|
|---2--------------------|----------------|-^5----------|------------------|
|-0----------------------|----------------|-------------|--------------7\--|


 bang bang I shot you down
  (Em)                            (D)                (B)
|----------0-------|------------0-----------|------------------|
|--------0---------|----------0-----------3-|-(3)------------4-|
|------0-----------|--------0-----------2---|--------------4---|
|----2-------------|------2-----------4-----|------------4-----|
|------------------|--------------7-5-------|--------5S2-------|
|-0-----------7\-0-|-(0)--------------------|------------------|



|---------------|----------------|------------------|
|-0-----0-------|-^1-----1-0-----|------------------|
|-----0---2--0--|-^2---2------2--|-^4-----5-4-2-----|
|---2-----------|-^2-2-----------|-^4-4---------5-4-|
|---------------|-^0-------------|-^2---2-----------|
|---------------|----------------|------------------|


 music played
  (Em)               E5  D5     C/E     G5/C G5/C B/E D#m6 D/E D#m B/E N.C.
|-----------0-(0)------|--------------|---------------|------------------|
|---------0------------|--------------|---------------|------------------|
|-------0------------9-|-7------5-5-5-|-7-5-7--5-4--5-|-7--5--4----------|
|-----2--------------9-|-7------5-5-5-|-5-5-5--5-4--4-|-4--4--4----------|
|---2----------------7-|-5------7-7-7-|-7-7-7--7-6--6-|-6--6--6----------|
|-0--------------------|--------------|---------------|----------7-5-3-2-|


 now he's gone
 
  (Em)              (Em/D)   (G/C#)   (D)
|---------0-------------|-----------------|
|-------0--------0------|-0------0--------|
|-----0--------0------0-|------0----------|
|---2--------2------0---|---------------5-|
|-----------------------|----4--------7---|
|-0---------------------|-----------------|


               (B)
|----------------|---------------------|
|-(5)------(5)---|-------4----(4)------|
|--5-------(5)---|-----4---------------|
|----------------|---4-----------------|
|--------------7S|=2-------------------|
|----------------|----------------7\---|


 bang bang
  (Em)                            (D)                  (B)
|----------0-------|------------0-----------|------------------|
|--------0---------|----------0-----------3-|-(3)------------4-|
|------0-----------|--------0-----------2---|--------------4---|
|----2-------------|------2-----------4-----|------------4-----|
|------------------|--------------7-5-------|--------5S2-------|
|-0-----------7\-0-|-(0)--------------------|------------------|


 OUTRO:

  (Em)            Am               (B)
|---------------|----------------|------------------|
|-0-----0-------|-^1-----1-0-----|------------------|
|-----0---2--0--|-^2---2------2--|-^4-----5-4-2-----|
|---2-----------|-^2-2-----------|-^4-4---------5-4-|
|---------------|-^0-------------|-^2---2-----------|
|---------------|----------------|------------------|


  Em
   \0.5______/
|-^0--------(0)--(0)--|-(0)----*|
|-^0--------(0)--(0)--|-(0)----*|
|-^0--------(0)--(0)--|-(0)----*|
|-^2--------(2)--(2)--|-(2)----*|
|-^2--------(2)--(2)--|-(2)----*|
|-^0--------(0)--(0)--|-(0)----*|



Nancy Sinatra Tabs & Chords



Nancy Sinatra Tabs, Tablatures, Chords, Lyrics

Buy Nancy Sinatra CD
Nancy Sinatra
Buy Nancy Sinatra CD

  1. Nancy Sinatra - Bang Bang( My Baby Shot Me Down) Tabs
  2. Nancy Sinatra - These Boots Were Made For Walkin Tabs



cowboylyrics.com
All lyrics are property and copyright of their owners. All lyrics provided for educational purposes only.