, Hold To A Dream Tabs, Chords, Lyrics

, Hold To A Dream Tabs, Chords

 SITE MENU
 Request Tabs
 Add/Correct Tabs
 DMCA Policy
 Country Sheet Music
0

BROWSE LYRICS AND TABS BY ARTIST/BAND NAME: SEARCH HERE:
A B C D E F G H I J K L M N O P Q R S T U V W X Y Z #
 

- Hold To A Dream (Chords)


CD
 Sheet music
Posters
Key of D
Riff 1:
    D
e|---------------------------------------------------|
b|--7-7-8-7-7-------7-10-8-7-------------------------|
G|--7---------9-7-9----------9-7-62-2-2-2-4-2-0-4-2-| 	 
D|--0------------------------------------------------|
A|---------------------------------------------------|
E|---------------------------------------------------| 
Riff 2:
    A
e|--------------------------------------------------|
b|--5-5-7-5-5-------5-7-8-7-5-----------------------|
G|--6---------7-6-7-----------6p7h62-2-2-4-2-0-4-2-|
D|--7-----------------------------------------------|
A|--0-----------------------------------------------|
E|--------------------------------------------------|
    D 	  	  	  	  	  	  	  A 	  	        G     A
Iím happy to roam I can find my way to the mountains and the ocean foam.
(Riff 1)
    A 	  	  	  	  	                 D              G         A
But if I had a map to show me the way to your heart dear Iíd follow it home.
(Riff 2)
D                                                A            G        A
Making my way through the dim lit streets of the old town - nowhere to go.
(Riff 1)
A                                              D             G 	         A
Wanderiní with the sea wind in my hair I never slow down - I miss you so.
(Riff 2)
CHORUS:
Bm   A    G       Em       D
HOLD TO A DREAM - CARRY IT UP AND DOWN
Bm A     G      Em         D
FOLLOW A STAR - SEARCH THE WORLD AROUND
Bm   A    G       Em       D
HOLD TO A DREAM - CARRY IT CLOSE TO ME
       D 	 
IíM FROZEN IN TIME
                             A  G  F#m  Em  D   Riff 1   Riff 2
YOUR LOVE WILL SET ME FREE.
    D                                 A              G    A
The rain outside is beating down, Iím here at home - all alone.
(Riff 1)
A                                     D                    G         A
We used to stay so warm inside, now a night like this - It chills my bones.
(Riff 2)
-CHORUS-
Solo 1(banjo) - Riff 1 - Solo 2 (banjo) - Riff 2 - Solo 3 (violin)
  D                                   A          G           A
I miss you darliní more and more, Iím thinkiní - Thinkiní of you.
(Riff 1)
A                                    D          G           A
Late at night lying in my sleep, Iím dreaminí - Dreaminí of you.
(Riff 2)
-CHORUS- (2x)
 


New Grass Revival Tabs & Chords



New Grass Revival Tabs, Tablatures, Chords, Lyrics

Buy New Grass Revival CD
New Grass Revival
Buy New Grass Revival CD

  1. New Grass Revival - Callin' Baton Rouge Chords
  2. New Grass Revival - Dancing with the Angels Chords
  3. New Grass Revival - Friday Night In America Chords
  4. New Grass Revival - Hold To A Dream Chords
  5. New Grass Revival - Steam Powered Aero Plane Chords



cowboylyrics.com
All lyrics are property and copyright of their owners. All lyrics provided for educational purposes only.