, Pulling Strings (axehappy) Tabs, Chords, Lyrics

, Pulling Strings (axehappy) Tabs, Chords

 SITE MENU
 Request Tabs
 Add/Correct Tabs
 DMCA Policy
 Country Sheet Music
0

BROWSE LYRICS AND TABS BY ARTIST/BAND NAME: SEARCH HERE:
A B C D E F G H I J K L M N O P Q R S T U V W X Y Z #
 

- Pulling Strings (axehappy) (Tabs)


CD
 Sheet music
Posters
Dave Sullivan (axehappy)  -  Pulling Strings (tab)




First thing I've ever written....if anyone wants to learn any of the licks or
anything I created here, here's a full tab for you to examine. :)



***********************************************************************************

/   =   slide up                                   h   =   hammer-on

p   =   pulloff                                    b   =   bend

bh  =   bend & hold                                r   =   release bend

\   =   slide down                                 x   =   dead note

bnb =   behind-nut bend                            bnbh =   behind-nut bend & hold

***********************************************************************************



INTRO


   G

E-------------------------------------------------------------------------------
B-----------------------5p0-3b-------------------------------5p0-3b-------------
G-----------5-3h4-5-3h4-5p0-3b-------------------5-3h4-5-3h4-5p0-3b-----3p0-5p0-
D-----5-3h5-5-3---5-3------5--5p3p0-3/5----5-3h5-5-3---5-3------5--5p3p0---5----
A-----5-3h5------------------------5-------5-3h5--------------------------------
E--1/3-3---3-3---3-3---3---------------6b-3-3---3-3---3-3---3-------------------

   C                                Csus   G           

E---------------------------------------------------------------------------
B-----5-5p3-3-3h5-3-5bh-5-5r--3-3p0-1---------------------------------------
G-----5-5p3-3-3h5-3-5bh-5-5r--3-3p0-0--------------5-3h4-5-3h4-5-3h4-5-3h4--
D----------------------------------3---------5-3h5-5-3---5-3---5-3---5-3----
A--1/3-3---3-3---3-3-------------------------5-3h5------------------------3-
E-----------------------------------------1/3-3---3-3---3-3---3-3---3-3-----

     D                         C                Bb  G

E---------------------7-6-5-----8p0-6p0-5p0-3p0---------------------
B-----------------------------------------------3-------------------
G------------7-6-5-4/7--6-5--7/9---7---5---3---3-----------5-3h4-0--
D-----7-6-5\4----------------------------------------5-3h5-5-3---0--
A--3/5-----------------------------------------------5-3h5----------
E-------------------------------------------------1/3-3---3-3---3---



E--7p0--0-------------|
B------6---0----------|
G-----7---0---0-------|
D--------8---0--------|
A-----------7--1h2----|
E-----------------3---|


1ST SOLO


   G

E------------------------------------------6b-3--------------------------------6-
B--6----6-6-6-----5-3b---------------------5b-3---5-3b----------------------6/8--
G--5bh--5-5-5r-p3-5-3b------3p0-5p0-3b--0-0-------5-3b------3p0-5p0-6p0-7p0------
D----------------5----5p3p0----5---5-----------5-5----5p3p0----5---5---5---5-----
A--------------------------5-------------------------------5---------------------
E--------------------------------------------------------------------------------

  C                                              G

E--6h8-8-8p6-6-6h8-8p6-6p0-3p0---0-0---------------5-5p3-x-3-x-3h5-5-5p3--
B--8---8-8--8-8---8---8---6---3h6-3----------------5-5p3-x-3-x-3h5-5-5p3--
G-----------------------------------5-3h4----------5-5p3-x-3-x-3h5-5-5p3--
D----------------------------------------5p3p0-3/5-5-5p3-x-3-x-3h5-5-5p3--
A----------------------------------------------3/5------------------------
E----------------------------------------------1/3------------------------

                               D7                  Db7  C7      C9

E------5-5p3-x-3-x-3-3-3-3-3-3-------x-x-----x-x-x----x-----x-x-3-3-x-x-3--
B------5-5p3-x-3-x-3-3-3-3-3-3---3-3-x-x-3-3-x-x-x-2--x-1-1-x-x-3-3-x-x-3--
G------5-5p3-x-3-x-3-3-3-3-3-3---5-5-x-x-5-5-x-x-x-4--x-3-3-x-x-3-3-x-x-3--
D--3/5-5-5p3-x-3-x-3-3-3-3-3-3---4-4-x-x-4-4-x-x-x-3--x-2-2-x-x-2-2-x-x-2--
A--3/5-------------------------5-5-5-x-x-5-5-x-x-x-4--x-3-3-x-x-3-3-x-x-3--
E--1/3-------------------------------x-x-----x-x-x----x-----x-x-----x-x----

     G                        D

E------------------------------------------|
B--------------------------------7-7h8-7---|
G---------5-3h4-5-0--------0----7--7h9-7---|
D-----3h5-5-3---5-0-----0-2----7-----------|
A-----3h5--------------2-3--5/9------------|
E--1/3---3-3---3-3--2h3--------------------|



2ND SOLO


     G

E--------15--13---------------------------------15--------------
B----------------------------12-13p12--12-----15--18-17-15------
G--9/14bh--14--14r---------12--------14--14/16------------17-16-
D-----------------15--12h14-------------------------------------
A---------------------------------------------------------------
E---------------------------------------------------------------

   C                                       Bb    G

E--12--12------------------0-----------------------------------------------------
B---------15---13-12-10-8--------------------------------------------------------
G--15b-15-15-0-14-13-10-8h9--9-8-7---5-4-3-3-------------------------------------
D---------------------------10-9-8-0-7-6-5--3-----5-3h5-3h5-3h5-3----5-3h5-3h5-5-
A--------------------------------------------3----5-3h5-3h5-3h5-3----5-3h5-3h5-5-
E---------------------------------------------6b-3-3---3---3---3-6b-3-3---3---3--

     D                               C

E---------------10----------------------8----10-----11-----12/---|
B----------0------13-12-10---10----------------------------------|
G------0--5-9/11----------12-10h11---7/9-9/10--10/11--11/12--/---|
D-----4--7------------------------12-----------------------------|
A--3/5-----------------------------------------------------------|
E----------------------------------------------------------------|



ENDING


   G  

E------------------------------------------------------------------------------
B-----------------------5p0-3b-------------------------------5p0-3b------------
G-----------5-3h4-5-3h4-5p0-3b-------------------5-3h4-5-3h4-5p0-3b------------
D-----5-3h5-5-3---5-3------5--5p3p0-3/5----5-3h5-5-3---5-3------5--5p3p0-3/5---
A-----5-3h5------------------------5-------5-3h5------------------------5------
E--3/5-3---3-3---3-3---3---------------6b-3-3---3-3---3-3---3---------------6b-

                                        Bb

E---------------------------------------6---6-6-----6---6-6----
B---------------------5p0-3b------------6---6-6-----6---6--6---
G---------5-3h4-5-3h4-5p0-3b--------5\3-5bh-5-5r-p3-5bh-5---5r-
D---5-3h5-5-3---5-3------5--5p3p0------------------------------
A---5-3h5------------------------5/7-\5------------------------
E--3-3---3-3---3-3---3-----------------------------------------

   C                      G                  G6
 
E--8---8-8-----8---8-8----7p0--------------0--------|
B--8---8-8-----8---8--8-------8--0----0bnbh-0r------|
G--7bh-7-7r-p5-7bh-7---7r-7--7--0-0bnb--------------|
D------------------------------9--------------------|
A---------------------------------------------------|
E---------------------------------------------1/3---|




Original Artist Tabs & Chords



Original Artist Tabs, Tablatures, Chords, Lyrics

Buy Original Artist CD
Original Artist
Buy Original Artist CD

  1. Original Artist - 'untitled' J. Cash Tribute Song Chords
  2. Original Artist - 31st Of Never Chords
  3. Original Artist - A House Ain't A Home Chords
  4. Original Artist - A Little Chance Chords
  5. Original Artist - A Prayer Without Wings Chords
  6. Original Artist - A Song For Love Chords
  7. Original Artist - Ain't Got A Damn Thing To Do Chords
  8. Original Artist - Ain't That Big Chords
  9. Original Artist - Alcohol & A Country Song Chords
  10. Original Artist - Always Thinkin' Of You Chords
  11. Original Artist - Amazing Grace (blues Gospel Style) Tabs
  12. Original Artist - Amy's Eyes Chords
  13. Original Artist - Anchor Chords
  14. Original Artist - Angel In Knoxville Chords
  15. Original Artist - Angel To Me Chords
  16. Original Artist - Anyday Chords
  17. Original Artist - Ash Trey Full Of Tears Chords
  18. Original Artist - Away With The Angels Chords
  19. Original Artist - Back Down Lenny Chords
  20. Original Artist - Ballad Of Six Chamber Sam Chords
  21. Original Artist - Barre Chord Blues Chords
  22. Original Artist - Be Honest ('cause I'm Gonna Lie) Chords
  23. Original Artist - Beat The Onry Off Me Chords
  24. Original Artist - Because I Love You Chords
  25. Original Artist - Been Down That Road Chords
  26. Original Artist - Big Wheel Symphony Chords
  27. Original Artist - Blame It On You Chords
  28. Original Artist - Boobs And Brakes Chords
  29. Original Artist - Both Sides Chords
  30. Original Artist - Broke Down, Lost & Spinning My Wheels Chords
  31. Original Artist - Broken Wings Chords
  32. Original Artist - Call It A Draw Chords
  33. Original Artist - Can I Come Home? Chords
  34. Original Artist - Car Song Chords
  35. Original Artist - Catch Me When I Fall Tabs
  36. Original Artist - Catch Those Dreams Chords
  37. Original Artist - Caught Between The Devil And You Chords
  38. Original Artist - Chain Of Pain Chords
  39. Original Artist - Chew Song Chords
  40. Original Artist - Christy's Song Chords
  41. Original Artist - Close Your Eyes Chords
  42. Original Artist - Cold Black Chill Chords
  43. Original Artist - Colorado Cowboy Cry Chords
  44. Original Artist - Comeback Cathy Chords
  45. Original Artist - Confused Chords
  46. Original Artist - Country Ain't Country Tabs
  47. Original Artist - Country Boy Redneck Message Chords
  48. Original Artist - Cubby The Perfect Dog Chords
  49. Original Artist - Danny Boy Revisited Tabs
  50. Original Artist - Dead In Dallas Chords
  51. Original Artist - Devil Ain't Got Nothin' On Me Chords
  52. Original Artist - Devil's Got Me In A Bind Chords
  53. Original Artist - Devil's Road (take One) Chords
  54. Original Artist - Do As I Say Chords
  55. Original Artist - Do As I Say ( Not As I Do) Chords
  56. Original Artist - Does God Have A Last Chance Chords
  57. Original Artist - Don't Know Me Chords
  58. Original Artist - Don't Make Me Choose Chords
  59. Original Artist - Don't Worry Baby Chords
  60. Original Artist - Double-wide Life Chords
  61. Original Artist - Drawer Full Of Hurtin' Songs Chords
  62. Original Artist - Drifter Chords
  63. Original Artist - Drifting Away Chords
  64. Original Artist - Drinkin' For A Livin' Chords
  65. Original Artist - Drinkins Gonna Kill Me Chords
  66. Original Artist - Drivin' To Commit Chords
  67. Original Artist - Eat Like I Ain't Dietin' Chords
  68. Original Artist - Empty Crowd Chords
  69. Original Artist - Even Cowboys Cry Chords
  70. Original Artist - Everchanging Tabs
  71. Original Artist - Everyday Is Just One Day Chords
  72. Original Artist - Excuse Me Miss Chords
  73. Original Artist - Ezekiel Revisited Chords
  74. Original Artist - Faded From View Chords
  75. Original Artist - Faded Memories Chords
  76. Original Artist - Fake Smile Tabs
  77. Original Artist - Father's Day Chords
  78. Original Artist - Fix Me Chords
  79. Original Artist - Flower Of The South Chords
  80. Original Artist - Flowers Of Love Chords
  81. Original Artist - For Her Chords
  82. Original Artist - For Mamma Chords
  83. Original Artist - For Waylon Chords
  84. Original Artist - Forgotten Well Chords
  85. Original Artist - Full Of Each Other Chords
  86. Original Artist - Ghost Radio Chords
  87. Original Artist - Ghostly Visions Chords
  88. Original Artist - Gift Of Your Love Chords
  89. Original Artist - Glad It Wasn't Me Chords
  90. Original Artist - God's Roses Never Die Chords
  91. Original Artist - Gone For Good Girl Chords
  92. Original Artist - Goodbye To Romance Chords
  93. Original Artist - Goodbye You Chords
  94. Original Artist - Guitars & Beer (axehappy) Chords
  95. Original Artist - He Drank My Whiskey Chords
  96. Original Artist - Hell Yes, I'm An Outlaw Chords
  97. Original Artist - Her Momma's Eyes Chords
  98. Original Artist - Hey, Mike! (the Yankee Roommate Song) Chords
  99. Original Artist - High Plains Drifter Chords
  100. Original Artist - How Many Sixpacks To Austin? Chords
  101. Original Artist - I Can Do All Things Chords
  102. Original Artist - I Don't Know What It Is Chords
  103. Original Artist - I Don't Love Pam'la Anderson Chords
  104. Original Artist - I Got Burned Chords
  105. Original Artist - I Got Homeschooled In A Trailer Tabs
  106. Original Artist - I Hate Mexico Chords
  107. Original Artist - I Live What I Write And Play What I Feel Chords
  108. Original Artist - I Lost Myself In Your Words Chords
  109. Original Artist - I Love Your Style Chords
  110. Original Artist - I Only Write When I'm Stoned Chords
  111. Original Artist - I Screen For Tsa Chords
  112. Original Artist - I Started With Nothing,I Still Got Some Left Chords
  113. Original Artist - I Wanna Get Drunk Chords
  114. Original Artist - I Watched You Dance Chords
  115. Original Artist - I Wish I Was Lonely Again Chords
  116. Original Artist - I Wish That I Could Love You Chords
  117. Original Artist - I Won't Go That Way Chords
  118. Original Artist - I'd Like To Be Famous Chords
  119. Original Artist - I'll See You Everywhere Chords
  120. Original Artist - I'll See You Later Chords
  121. Original Artist - I'm Gonna Leave Chords
  122. Original Artist - I'm Gonna Write A Song Chords
  123. Original Artist - I'm Over You Chords
  124. Original Artist - I'm Sorry I Let You Down Chords
  125. Original Artist - I'm The One Chords
  126. Original Artist - I've Got A Right To Know Chords
  127. Original Artist - If I Could Write A Love Song Chords
  128. Original Artist - If I'd Done Whats Right Chords
  129. Original Artist - If It Pleases You Chords
  130. Original Artist - If Jesus Asked Me For A Light Chords
  131. Original Artist - If You're Not From Here Chords
  132. Original Artist - It Don't Feel Right (if It Ain't All Wrong) Chords
  133. Original Artist - It Only Gets Better From Here Chords
  134. Original Artist - It Will Be Ok Chords
  135. Original Artist - It's Been A Long Time Chords
  136. Original Artist - It's Hard To Say I'm Sorry Chords
  137. Original Artist - Its Hard To Kiss The Lips Chords
  138. Original Artist - Jocks And Geeks Chords
  139. Original Artist - John Deere Cowboy Chords
  140. Original Artist - Johnny Lonely Chords
  141. Original Artist - Just Go Away Chords
  142. Original Artist - Katrina Katrina Chords
  143. Original Artist - Kelley's Bar Chords
  144. Original Artist - Last Laugh On The Trinity River Chords
  145. Original Artist - Leaving Stillwater Chords
  146. Original Artist - Let Forever Slip Away Chords
  147. Original Artist - Let The Hitch-hiker Wander Through The Night Chords
  148. Original Artist - Life And Death Chords
  149. Original Artist - Lifes Simple Things Chords
  150. Original Artist - Little Things Remind Me Chords
  151. Original Artist - Live For The Watermelon Chords
  152. Original Artist - Lonely Drifter Chords
  153. Original Artist - Looking For My Heart Chords
  154. Original Artist - Lord Of Mercy Chords
  155. Original Artist - Lost Then Found Chords
  156. Original Artist - Low Maintenance Women Drive High Maintenance Cars Tabs
  157. Original Artist - Lucky In Lubbock Chords
  158. Original Artist - Mandolin 4 A Gun Chords
  159. Original Artist - Marijuana Mindy Chords
  160. Original Artist - Memories That Never Leave Chords
  161. Original Artist - Midnight Barbeque Chords
  162. Original Artist - Mine Tonight Chords
  163. Original Artist - Misery Chords
  164. Original Artist - Mother Dearest (the Pain Inside) Chords
  165. Original Artist - Move A Little Farther Chords
  166. Original Artist - Music With Our Legends Gone Chords
  167. Original Artist - My Best Friends (revised) Chords
  168. Original Artist - My Closest Friends Chords
  169. Original Artist - My One Love Chords
  170. Original Artist - My Star Chords
  171. Original Artist - My World Falls Apart Chords
  172. Original Artist - Nashville Dreams Chords
  173. Original Artist - Nashville's Not For Me Chords
  174. Original Artist - No Luck At All Chords
  175. Original Artist - No Name, No Money, No Fame Chords
  176. Original Artist - Not My War Chords
  177. Original Artist - Ol' Hank Chords
  178. Original Artist - Old Age Blues Chords
  179. Original Artist - One Dance Chords
  180. Original Artist - One More Chords
  181. Original Artist - One More Rodeo Chords
  182. Original Artist - One Way Train Chords
  183. Original Artist - Over There Chords
  184. Original Artist - Pasture Party( The Real One) Chords
  185. Original Artist - Pick Your Poison Chords
  186. Original Artist - Pickin' Blind Chords
  187. Original Artist - Piece Of Paper In A Frame Chords
  188. Original Artist - Popgoesthe Tabs
  189. Original Artist - Prisoner In My Own Room Chords
  190. Original Artist - Prisoner's Lament Chords
  191. Original Artist - Pulling Strings (axehappy) Tabs
  192. Original Artist - Queen Of The Angels Gooddess Of My Soul Chords
  193. Original Artist - Redneck Jamboree Chords
  194. Original Artist - Reincarnation Song Chords
  195. Original Artist - Ride Of Life Chords
  196. Original Artist - Risen River Blues Chords
  197. Original Artist - Roadhouse Cowboy Chords
  198. Original Artist - Rock Island Blues Tabs
  199. Original Artist - Rockin' My Life Away Chords
  200. Original Artist - Rolling Stoned Who-haw #11 Chords
  201. Original Artist - Run The Risk Chords
  202. Original Artist - Runaway Life Chords
  203. Original Artist - Safe & Warm Tonight Chords
  204. Original Artist - Same As The Night Before Chords
  205. Original Artist - Saturday Night Swing(intro) Tabs
  206. Original Artist - Saturday Night Swing(part 1) Tabs
  207. Original Artist - Save Your Tears In A Shot Glass Chords
  208. Original Artist - Say That You Dont Love Me Chords
  209. Original Artist - September Will Never Be The Same Chords
  210. Original Artist - Set Up Them Drinks Chords
  211. Original Artist - Sex Drugs Your Mom And Me Chords
  212. Original Artist - She Drove Chords
  213. Original Artist - She Would've Left Me Anyway Chords
  214. Original Artist - She's Taken Chords
  215. Original Artist - Shell Of A Man Chords
  216. Original Artist - Silent As The Moon Chords
  217. Original Artist - Singin The Blue From Singin' The Blues Chords
  218. Original Artist - Smoking Your Memories Chords
  219. Original Artist - Snowin' In San Antone Chords
  220. Original Artist - So Do I (one More Try) Chords
  221. Original Artist - So F****d Up Chords
  222. Original Artist - Someone Like Me Chords
  223. Original Artist - South Of Laredo Chords
  224. Original Artist - Stand Tall Chords
  225. Original Artist - Standing On The Edge Of Love Chords
  226. Original Artist - Stay True Chords
  227. Original Artist - Stockman's Cry Chords
  228. Original Artist - Stress Chords
  229. Original Artist - Sunday Mornin' Blues Chords
  230. Original Artist - Sunrise From The Highway Chords
  231. Original Artist - Sí Chords
  232. Original Artist - Take Off Your Blues Chords
  233. Original Artist - Taps Tabs
  234. Original Artist - Taylor's Song Chords
  235. Original Artist - Telephone Chords
  236. Original Artist - Tell Me A Lie Chords
  237. Original Artist - Ten More Years Chords
  238. Original Artist - Tender Comfort Of Your Heart Chords
  239. Original Artist - Texas Snow Chords
  240. Original Artist - That Old Ford Chords
  241. Original Artist - That Way Chords
  242. Original Artist - That's What I'm Gonna Do Chords
  243. Original Artist - That's What You Do Chords
  244. Original Artist - The Bartender Screw Chords
  245. Original Artist - The Best Way I Know Chords
  246. Original Artist - The Cost Chords
  247. Original Artist - The Drink Chords
  248. Original Artist - The Gift Of Your Love (chords) Chords
  249. Original Artist - The Hard Six Chords
  250. Original Artist - The Hell Outta Here Chords
  251. Original Artist - The Love You Threw Away Chords
  252. Original Artist - The Lucky Chords
  253. Original Artist - The Lullaby Chords
  254. Original Artist - The Midnight Road Chords
  255. Original Artist - The Next Day Chords
  256. Original Artist - The Old Wood Bridge Chords
  257. Original Artist - The Reason Chords
  258. Original Artist - The Tatooed Girl Chords
  259. Original Artist - The Trucker Song Chords
  260. Original Artist - The Way We Are Chords
  261. Original Artist - There's A Love Song In This Bottle Chords
  262. Original Artist - Think Of You Chords
  263. Original Artist - This Letter Chords
  264. Original Artist - This Little Feeling Chords
  265. Original Artist - This Must Be Goodbye Chords
  266. Original Artist - This Or That Chords
  267. Original Artist - Till The Sun Comes And The Beer Is Gone Chords
  268. Original Artist - Time For Us To Settle Down Chords
  269. Original Artist - Tiny Texas Town Chords
  270. Original Artist - Titty Show Chords
  271. Original Artist - To A Broken Man's Heart Chords
  272. Original Artist - To Feel Like This Chords
  273. Original Artist - Together Again Chords
  274. Original Artist - Traditional Cowboy Song Arrangement(1) Tabs
  275. Original Artist - Train Left Me Behind Again Chords
  276. Original Artist - Train Outta Jackson Chords
  277. Original Artist - Train Outta Jackson - Lmofle Version Chords
  278. Original Artist - Train Roll On Chords
  279. Original Artist - Tropical Shore Chords
  280. Original Artist - Undying Love Chords
  281. Original Artist - Unspoken Love Chords
  282. Original Artist - Wabash Cannon Ball Tabs
  283. Original Artist - Walk About Talk About Mood Chords
  284. Original Artist - Walk Away Acoustic Chords
  285. Original Artist - Way That You Would Go Chords
  286. Original Artist - Wayfaring Stranger Revisited Tabs
  287. Original Artist - Waylon Never Said It Wrong Chords
  288. Original Artist - Welcome To Texas, Y'all Chords
  289. Original Artist - What A Man Really Needs Chords
  290. Original Artist - What About The Night Chords
  291. Original Artist - What You'd See Chords
  292. Original Artist - When I'm Drunk Chords
  293. Original Artist - When I'm Not In Love Chords
  294. Original Artist - When Jesus Comes To Town Chords
  295. Original Artist - When The Roll Is Called Up Yonder Revisited Chords
  296. Original Artist - Where Are The Roses Chords
  297. Original Artist - Where Do You Go When You Leave Chords
  298. Original Artist - Whiskey Into Wine Chords
  299. Original Artist - Whiskey, Take Me Chords
  300. Original Artist - Why Do Country Singers Wear Those Black Hats? Tabs
  301. Original Artist - Why Must Our Children Pay Chords
  302. Original Artist - Why? Chords
  303. Original Artist - Won't Be Taken Alive Chords
  304. Original Artist - Ying Ying's Motel Blues Chords
  305. Original Artist - You Ain't Breakin' My Heart Chords
  306. Original Artist - You Can't Love By Yourself Chords
  307. Original Artist - You Made Me Believe (in Love Songs) Chords
  308. Original Artist - You Suck! Chords
  309. Original Artist - You Sure Are Pretty When You Cry Chords
  310. Original Artist - You'll Be Mine Chords
  311. Original Artist - You're All I Need Chords
  312. Original Artist - Your Picture In My Wallet Chords



cowboylyrics.com
All lyrics are property and copyright of their owners. All lyrics provided for educational purposes only.