Joan Osborne, Crazy Baby Tabs, Chords, Lyrics

Joan Osborne, Crazy Baby Tabs, Chords

 SITE MENU
 Request Tabs
 Add/Correct Tabs
 DMCA Policy
 Country Sheet Music
0

BROWSE LYRICS AND TABS BY ARTIST/BAND NAME: SEARCH HERE:
A B C D E F G H I J K L M N O P Q R S T U V W X Y Z #
 

Joan Osborne - Crazy Baby (Chords)


Joan Osborne CD
Joan Osborne Sheet music
Joan Osborne Posters

E          C      D
e ----------------0------------------------------------
B ------------0----------------------------------------
G -----0-h-2--------------------------------0-0-0------
D -------------------12--------9h10p9-----9------------
A -----------------------------------12----------------
E -0-(let ring)----------------------------------------

E         C       D                              E
e ---------------0--------------------------------------
B ------------0--------3-/-5-\3-------------------------
G -----0-h-2-----------2-/-4-\2-----------2p0--2p0------
D -------------------------------------------------2----
A ------------------------------------------------------
E --0------------------------------------------------0--

E         C       D
e -----------------0----------------------------------
B ------------------3---------------------------------
G ------------0-------4-------------2-2-2-2-2-2p0-----
D -----0-h-2---2----------------------------------2---
A -------------------------------------------------0--
E ----------------------------------------------------

A
G ------------------0-h-2--------------------------------
D ---(2)--(2)-----2-------2------------------------------
                             one more time with that

[lead, with vibrato]

E          C           D
G -----7--7-7---7-7---7-7---7h9---9-9--------------------



E          C           D
G -----7--7-7---7-7---7h9---9---------\------------------

E          C           D
G -----7--7-7---7-7---7-7---7h9---9-9--------------------



A
G --------------------------------------
D ---9------7\5/7----------------------
A ------------------7/9\7------/(19)---
                               and your

E                 C        D
hands are really shaking...
Dsus D o E C D

e ----------------------(3/)5-\3-p-0---
            B ----------3/5\3----------------------
        A   G----2/4\2-------------------------------
you forget

Dsus   D   o E     C D
oh   you    know...

B -3/5\3-
G -2/4\2-

A        B -3--0----------------3-0------------
off the ground...  G ------3--1---------------3~~--------
                   D ------------2----------------2~~----

[chorus]:

E              *       D5          A
e --------------------------5--5--3--2--0--3-3--2---0----
B --------------------------3--3--------2---------3-------
G----1----1---1-----1-------2--2--------2-----------------
D ---2----2---2-----2-------0--0-------(2)----------------
A ---2----2---2-----2------------------(0)----------------
E ---0----0---0--------------------------------------------
          oh  my  crazy...

E              *       D5          A
e --------------------------5--5--3--2--0---3--3--2-------
B --------------------------3--3--------2------------3----
G----1----1---1-----1-------2--2--------2-----------------
D ---2----2---2-----2-------0--0-------(2)----------------
A ---2----2---2-----2------------------(0)----------------
E ---0----0---0--------------------------------------------



try to hold on...

E                D5 A
   oh my crazy...
G
D
E

Dsus  D  o E       C D
and they look at...

G --(2)--(2)--2--2--2h3p0h2---

A
that you can take...

G --4(4h)7--4--------0(0h)2--0---

Dsus  D  o E             C D
oh   you know you ought...
A

e ----------------------5-------------3p2p0---0----
B --2-h-3-h-5-----2-h-3---------------------2------

[chorus]

[break]:  (start at 7th position)

D                       A
e ----------------------------------------------------
B ----------------------------------------------7-----
G -9-----9-------99-9/11\9-9--9---9p7h9/11\9p7----9-7-
D ----------------------------------------------------
A ----------------------------------------------------
E ----------------------------------------------------
   ^     ^     ^     ^     ^     ^   ^          ^
   1     2     3     4     1     2   3          4

E
e --------------------------------------------------
B --------------------------------------------------
G -7-----7---6/7---7-7----6/7--7-7----6/7-7--7h9--9-
D --------------------------------------------------
A --------------------------------------------------
E --------------------------------------------------
   ^     ^     ^     ^     ^     ^     ^     ^
   1     2     3     4     1     2     3     4

D                       A
e -------------------------------5h7p5---5--5--5---
B -5--5--5--55----5--8p5---------------8-----------
G -------------7----------7b9----------------------
D -------------------------------------------------
A -------------------------------------------------
E -------------------------------------------------
   ^     ^     ^     ^     ^     ^     ^     ^
   1     2     3     4     1     2     3     4

E
e -5-\3--------------------------------------------
B ------------------------5-\3---------------------
G -------------------------------------------------
D -------------------------------------------------
A -------------------------------------------------
E -------------------------------------------------
   ^     ^     ^     ^     ^     ^     ^     ^
   1     2     3     4     1     2     3     4
                                           and your

E                C        D
          hands are really shaking...
Dsus D o E C D
         A

[chorus]

G
the light...
D
E
G
D
E

chords :

EADGBe
022100 - E
xx0232 - D
xx0233 - Dsus
xx0235 - D5
x32010 - C
xx0000 - o  ?Gadd2
355433 - G
x02220 - A

/ is slide up
\ is slide down
h is hammer-on
p is pull-off
b is pick then bend up
* in the chorus might be an A, but I don't think so


Osborne Joan Tabs & ChordsOsborne Joan Lyrics



Osborne Joan Tabs, Tablatures, Chords, Lyrics

Buy Osborne Joan CD
Osborne Joan
Buy Osborne Joan CD

  1. Osborne Joan - Crazy Baby Chords
  2. Osborne Joan - Dracula Moon Chords
  3. Osborne Joan - If God Was One Of Us Chords
  4. Osborne Joan - Lets Just Get Naked Chords
  5. Osborne Joan - My Love Is Alive Chords
  6. Osborne Joan - Pensacola Chords
  7. Osborne Joan - Spider Web Chords
  8. Osborne Joan - St. Theresa Chords
  9. Osborne Joan - What You Gonna Do Chords



cowboylyrics.com
All lyrics are property and copyright of their owners. All lyrics provided for educational purposes only.