, Killin' U2 Tabs, Chords, Lyrics

, Killin' U2 Tabs, Chords

 SITE MENU
 Request Tabs
 Add/Correct Tabs
 DMCA Policy
 Country Sheet Music
0

BROWSE LYRICS AND TABS BY ARTIST/BAND NAME: SEARCH HERE:
A B C D E F G H I J K L M N O P Q R S T U V W X Y Z #
 

- Killin' U2 (Chords)


CD
 Sheet music
Posters
The Pear Ratz
Killin U2 


Intro E
e------------------------------------------------------
B------------------------------------------------------
G------------------------------------------------------
D-----2-2-----2----2-2-----2-----2-2-----2-------------
A----------2------------2-------------2----------------
E---0------------0-------------0-----------0---b3--b3-- and repeat

	E
	By the time I put that bottle down I was three sheets in the wind
	E
	Just one thing burning in my brain: you with that man again
	A
	I stuffed that pistol in my belt, stumbled out the door
	E
	One eye shut a little bit of luck, I pushed it to the floor
	B
	Driving blind and outta my mind, smokin' with every breath
	E
	I'm whiskey mean, your a cheatin queen, about to have a date with death
	
	Doin' 110 with the cold night wind slapping me in the face
	Your fate is sealed I can feel the steel, hot lead is what your gonna taste
	I coast up in the driveway, quiet as I can be
	I check the clip, no room to slip, the back door is where I ease
	Standing in the doorway, at the point of no return
	I got the devil on my side no place to hide, you better get ready to burn	

Chorus:
	A
	Yeah, I never had me a woman love me the way you do
	E
	You swore to me that you'd always be so faithful and so true
	B
	Honey can't you see that I want it to be like it was before
	E
	If there ain't gonna be no you and me then you ain't gonna breathe no more

	Yeah I never had me a woman love me the way you do
	You swore to me that you'd always be so faithful and so true
	Honey can't you see that I want it to be like it was before
	if there ain't gonna be no you and me then you ain't gonna breathe no more

Walk up from E to A:

e-----0-0----0-------------0----0--
B-----0-0----0-------------2----2--
G-----1-1----1-------------2----2--
D-----2-2----2-------------2----2--
A----------0-------------0----0----
E---0-----------0--0-3-4-----------


Pear Ratz Tabs & Chords



Pear Ratz Tabs, Tablatures, Chords, Lyrics

Buy Pear Ratz CD
Pear Ratz
Buy Pear Ratz CD

  1. Pear Ratz - Just South Of The Nueces Chords
  2. Pear Ratz - Killin' U2 Chords
  3. Pear Ratz - Ozona Chords



cowboylyrics.com
All lyrics are property and copyright of their owners. All lyrics provided for educational purposes only.