Pure Prairie League, Amie - Multi Guitar Arrangement Tabs, Chords, Lyrics

Pure Prairie League, Amie - Multi Guitar Arrangement Tabs, Chords

 SITE MENU
 Request Tabs
 Add/Correct Tabs
 DMCA Policy
 Country Sheet Music
0

BROWSE LYRICS AND TABS BY ARTIST/BAND NAME: SEARCH HERE:
A B C D E F G H I J K L M N O P Q R S T U V W X Y Z #
 

Pure Prairie League - Amie - Multi Guitar Arrangement (Tabs)


Pure Prairie League CD
Pure Prairie League Sheet music
Pure Prairie League Posters
Amie
By Craig Fuller

   
A5      xx7910x       
A       x02220     
G       3x003x   
D       xx0232
D/F#    2x0232 
C       x32010  
Bm      x2443x    
Bm/A    x0443x
E       022100  
Asus2   5x245x 
Dadd2/A x07770 
D/A     x0423x
A7      x070109   
E7b9/A  x06760   
Aadd2   x07600

Gtr I   12-string acoustic
Gtr II  6-string acoustic
Gtr III 6-string acoustic
Gtr IV  Electric 
Gtr V   Electric

All Guitars Standard Tuning


   Intro
    Lively 1/2-time swing H=94(8=s8)
   2/2
    Gtr I
    Q   Q  Q   Q    Q   Q  Q   Q      Q    Q   Q   Q
||----------------|----------------||------------------|
||o----10-----10--|----10-----10--o||-----10------10---|
||------9------9--|-----9------9---||------9-------9---|
||--7------7---7--|-7------7-------||-7--------7---7---|
||o---------------|---------------o||------------------|
||----------------|----------------||------------------|
|
|   Gtrs II, III
|   W               W                 E E  E E Q   E E
||----------------|----------------||------------------|
||o---------------|---------------o||------------------|
||----------------|----------------||------2---2---4-2-|
||----------------|----------------||-2-4--------------|
||o---------------|---------------o||------------------|
||----------------|----------------||------------------|


  Q    Q   Q    Q     Q    Q   Q   Q     Q    Q  Q    Q
|-------------------|------------------|------------------|
|-----10-------10---|-----10------10---|-----10------10---|
|------9--------9---|------9-------9---|------9-------9---|
|-7--------7--------|-7--------7---7---|-7-------7--------|
|-------------------|------------------|------------------|
|-------------------|------------------|------------------|
|
| E E  E E E E  E E   E E  E E Q   E E   E E  Q  Q.     E
|-------------------|------------------|------------------|
|------5-7-5--------|------------------|------------------|
|-4s6--------6s=4-2-|------2---2---4-2-|-4s6--4--4--------|
|-------------------|-2-4--------------|------------------|
|-------------------|------------------|------------------|
|-------------------|------------------|------------------|


  Q    Q   Q   Q     Q    Q   Q    Q
|------------------|-------------------|
|-----10------10---|-----10-------10---|
|------9-------9---|------9--------9---|
|-7--------7---7---|-7--------7--------|
|------------------|-------------------|
|------------------|-------------------|
|
| Gtr II
| E E  E E Q   E E   E E  E E E E  E E
|------------------|-------------------|
|------------------|------5-7-5-7--5-7-|
|------2---2---4-2-|-4s6---------------|
|-2-4--------------|-------------------|
|------------------|-------------------|
|------------------|-------------------|
|
| Gtr III
| E E  E E Q   E E   E E  E E E E  E E
|------------------|----------5----5---|
|------------------|------5-7---7----7-|
|------2---2---4-2-|-4-6---------------|
|-2-4--------------|-------------------|
|------------------|-------------------|
|------------------|-------------------|


  Q    Q   Q      Q       Q    Q   Q      Q
|-----------------------|---------------------|
|-----10---------10-----|-----10---------10---|
|------9----------9-----|------9----------9---|
|-7--------7------7-----|-7--------7----------|
|-----------------------|---------------------|
|-----------------------|---------------------|
|
| E E  E E E E    E S S   E E  E E E   E  E E
|-5---------------------|------5---7b9-7--5---|
|---7--5-7-5-5----5-----|-5-7----7------------|
|---------------------x-|---------------------|
|-------------------x---|---------------------|
|-----------------------|---------------------|
|-----------------------|---------------------|
|
| E E  E E E S S  E E     E E  E E E   E  E E
|-5---------------------|---------------------|
|---7--5-7-5------5-5---|-5-7--5--------------|
|--------------x--------|--------6s4---2------|
|------------x----------|-----------------4---|
|-----------------------|---------------------|
|-----------------------|---------------------|


  E E H.         E E Q  E E Q    Q   H.        E E Q  E E Q
|--------------|------------2--|-----0-------|------------2--||
|-----2--------|-0---3------3--|-----2-------|---0-3----3-3--||
|-----2--------|-x-0-0----0-2--|-----2-------|---0-0----2-2--||
|---2-2--------|-x-0-0--x-0-0--|-----2-------|-----0--x---0--||
|-0------------|--------x------|-----0-------|-x------x------||
|--------------|-----3---------|-------------|-----3------2--||
|
| Q   H     Q    E E Q  E E Q    E E H.        E E Q  E E Q
|--------------|------------2--|-------------|-----2----0-2--||
|-----2-----2--|-----3------3--|-----2-------|-3---3------3--||
|-----2--------|---0-0----0-2--|-----2-------|-x---2------2--||
|-----2--------|---0-0----0-0--|-----2-------|-x---2------0--||
|-0------------|---------------|-x---0-------|-----0--x------||
|--------------|-x---3--x---2--|-------------|-3-------------||


 1st Verse
  A                     G       D
  Gtr II
  Q  Q      E  E  E E   E E E E E E E E
  |  |      |  |  | |   | | | | | | |
  /  /      /  /  / /   / / / / / / /

  Gtr IV
  Q  E  E  +E  E  E E   E E E E E E E E
|---------------------|-----------------|
|----9h10-(10)--------|-7h8-------7-----|
|--------------9------|-------7-----7---|
|----9h11-(11)---11---|-7h9-9---7-------|
|---------------------|-----------------|
|---------------------|-----------------|
|
| Gtr III
| Q  Q      Q     E E   Q   Q   Q   Q
|---------------------|-------------2---|
|----2------------2---|-----3-------3---|
|----2------------2---|-----0-------2---|
|----2------------2---|-----0---0-------|
|-0-------------------|-----------------|
|-----------0---------|-3---------------|


  A                     G       D/F#
  Q  Q      E  E  E E   E E E E E E Q
  |  |      |  |  |     | | |   | | |
  /  /      /  /  /     / / /   / / /

  Q  E  E  +E  E  E E   E E E E E E E E
|---------------------|-----------------|
|----9h10-(10)--------|-7h8-------7-----|
|--------------9------|-------7-----7---|
|----9h11-(11)---11---|-7h9-9---7-------|
|---------------------|-----------------|
|---------------------|-----------------|
|
| Q  Q      Q     E E   Q   Q   Q   E E
|---------------------|-----------------|
|----2------------2---|-----3-------3---|
|----2------------2---|-----0-------2---|
|----2------------2---|-----0-------0---|
|-0-------------------|-----------------|
|-----------0---------|-3-------2-------|


  A                       G       D
  Q   Q      E   E  E E   E E Q   E E E E
  |   |      |   |  |     | | |   | | |
  /   /      /   /  /     / / /   / / /

  Q   E  E  +E   E  E E   E E E E E E E E
|----12-----------------|-----------------|
|---------------10------|-7h8-------7-----|
|-----------------------|-------7-----7---|
|-----9h11-(11)----11---|-7h9-9---7-------|
|-----------------------|-----------------|
|-----------------------|-----------------|
|
| Q   Q      Q      E E   Q   Q   Q   E E
|-----------------------|-----------------|
|-----2-------------2---|-----3-------3---|
|-----2-------------2---|-----0-------2---|
|-----2-------------2---|-----0-------0---|
|-0---------------------|-----------------|
|------------0----------|-3-------2-------|


  A
  Q  Q      E  E  Q    Q     Q    E  E  E E
  |  |      |  |  |    |     |    |  |  |
  /  /      /  /  /    /     /    /  /  /

  Q  E  E  +E  E  Q    E  E  E E +Q     E E
|--------------------|----------------------|
|----9h10-(10)-------|-9h10-----------------|
|--------------9-----|---------9-(9)----9---|
|----9h11-(11)---11--|-9h11-11---------11---|
|--------------------|----------------------|
|--------------------|----------------------|
|
| Q  Q      Q     Q    Q     Q    Q     E E
|--------------------|----------------------|
|----2------------2--


Pure Prairie League Tabs & Chords



Pure Prairie League Tabs, Tablatures, Chords, Lyrics

Buy Pure Prairie League CD
Pure Prairie League
Buy Pure Prairie League CD

  1. Pure Prairie League - Amie - Multi Guitar Arrangement Tabs
  2. Pure Prairie League - Amie(another Version) Tabs
  3. Pure Prairie League - Amie(full Version With Outro) Tabs
  4. Pure Prairie League - Early Morning Riser Chords
  5. Pure Prairie League - Falling In And Out Of Love (w/ Lead Riffs) Chords
  6. Pure Prairie League - I Can Only Think Of You Chords
  7. Pure Prairie League - I'll Fix Your Flat Tire, Merle Chords
  8. Pure Prairie League - Let Me Love You Tonight Chords
  9. Pure Prairie League - Sun Shone Lightly Chords
  10. Pure Prairie League - Tears Chords
  11. Pure Prairie League - Two Lane Highway Chords
  12. Pure Prairie League - Youre Mine Tonight Chords



cowboylyrics.com
All lyrics are property and copyright of their owners. All lyrics provided for educational purposes only.