Radiation Rangers, If I Were A Carpenter Tabs, Chords, Lyrics

Radiation Rangers, If I Were A Carpenter Tabs, Chords

 SITE MENU
 Request Tabs
 Add/Correct Tabs
 DMCA Policy
 Country Sheet Music
0

BROWSE LYRICS AND TABS BY ARTIST/BAND NAME: SEARCH HERE:
A B C D E F G H I J K L M N O P Q R S T U V W X Y Z #
 

Radiation Rangers - If I Were A Carpenter (Chords)


Radiation Rangers CD
Radiation Rangers Sheet music
Radiation Rangers Posters
Intro (Play twice)

E|--2--2--2--------|--------0--|--------------------|--2--2--3--2--0--2--|--
B|--3--------3-----|--------3--|--------3--------3--|--3-----------------|--
G|--2-----------2--|-----0-----|-----0--------0-----|--2-----------------|--
D|-----------------|--2--------|--------------------|--------------------|--
A|--x--------------|-----------|--3--------2--------|--x-----------------|--
E|--x--------------|-----------|--------------------|--x-----------------|--

VERSE: 1
D 	      C 	        G 	  	  D
If I were a carpenter   and you were a lady
D 	  	     C 	     G 	  	          D
Would you marry me anyway?   Would you have my baby?

D 	      C 	            G 	  	       D
If a tinker were my trade   would you still find me?
D 	       C 	  	    G 	  	    D
Carrying the pots I made,   following behind me

CHORUS:
C 	  	   D 	  	  C 	  	      D
Save my love for loneliness, save my love for sorrow
D 	          C 	    G 	           D 	 
Ill give you my onliness,  give me your tomorrow


Interlude  (same as intro)


VERSE: 2
D 	         C 	  	 G 	  	        D
If I worked my hands in wood    would you still love me?
D 	  	  C 	         G 	                  D
Answer me babe, "Yes, I would,   and I'll put you above me"

D 	      C 	     G 	  	        D
If I were a miller   at a mill wheel grinding
D 	  	      C 	             G 	                     D
Would you miss your colored blouse    and your soft shoes shining


CHORUS


Outro (Play twice)

E|--2--2--2--------|--------0--|--------------------|--2--2--3--2--0--2--|--
B|--3--------3-----|--------3--|--------3--------3--|--3-----------------|--
G|--2-----------2--|-----0-----|-----0--------0-----|--2-----------------|--
D|-----------------|--2--------|--------------------|--------------------|--
A|--x--------------|-----------|--3--------2--------|--x-----------------|--
E|--x--------------|-----------|--------------------|--x-----------------|--

E|--2--2--2--------|--------0--|--------------------|--2--2--3--2--0--x--|--
B|--3--------3-----|--------3--|--------3--------3--|--3--------------x--|--
G|--2-----------2--|-----0-----|-----0--------0-----|--2--------------x--|--
D|-----------------|--2--------|--------------------|--------------------|--
A|--x--------------|-----------|--3--------2--------|--x--------------0--|--
E|--x--------------|-----------|--------------------|--x--------------0--|--
 	  	 | Retard tempo to end


Radiation Rangers Tabs & Chords



Radiation Rangers Tabs, Tablatures, Chords, Lyrics

Buy Radiation Rangers CD
Radiation Rangers
Buy Radiation Rangers CD

  1. Radiation Rangers - If I Were A Carpenter Chords



cowboylyrics.com
All lyrics are property and copyright of their owners. All lyrics provided for educational purposes only.