Jerry Reed, Pretty Mary Sunlite Tabs, Chords, Lyrics

Jerry Reed, Pretty Mary Sunlite Tabs, Chords

 SITE MENU
 Request Tabs
 Add/Correct Tabs
 DMCA Policy
 Country Sheet Music
0

BROWSE LYRICS AND TABS BY ARTIST/BAND NAME: SEARCH HERE:
A B C D E F G H I J K L M N O P Q R S T U V W X Y Z #
 

Jerry Reed - Pretty Mary Sunlite (Tabs)


Jerry Reed CD
Jerry Reed Sheet music
Jerry Reed Posters
Pretty Mary Sunlite - Tab
Jerry Reed

Intro:
----------0-2---0---5-3-0------
--------2---2---0-----2---3-0--
--------0---0-0h1---5-----3-2--
----------------------------1--
--------0---1-------3-4-----2--
--0-4/7-----------0-------2----

Verse:
----0---------0---0-------0---0-------0---0-------0---2-------2---2-------0--
----0-------------3-----------2-----------2-----------0-------0---0----------
----0h1---1-------1---1-------2---2-------2---2-------2---2-------2---2------
------------2-----------2-----------2-----------2-----------1-----------1----
--------2-----------2-------0-----------0-----------2-----------2------------
--0-------------0---------------0-----------0-----------2-----------2--------

----0---------0-----0-------0---0---------0---0-------0---0-------0---0-------0--
----0-----------0---0-----------0-------------3-----------2-----------2----------
----0h1---1-------2-----2-------0h1---1-------1---1-------2---2-------2---2------
------------2---------------------------2-----------2-----------2-----------2----
--------2-------2---0---------------2-----------2-------0-----------0------------
--0-------------------3---2---0-------------0---------------0-----------0--------

------2-----2---2-----0---0--------0-----0--------
------0---------0---------0--------------0--------
------2---------2---------0h1--1-------1-----1----
------1---1---------1------------2-------------2--
--2p0---------2--------------2-------------2------
--------2---------2-----0------------0------------

Pre-Chorus: 
------------------------2--
--0-----0-----0---------4--
--2-----2-----2----2----4--
--1-----1-----1----4----4--
--2-----2-----2----4----2--
-------------------2-------

Chorus:
----0---------0---2-------0---0-------0---0---------0--\
----0-------------0-----------2-----------0------------ \
----0h1---1-------2---2-------0---0-------0h1---1------  \
------------2-----------1-----------2-------------2----  /Play twice
--------2-------2-----------0-----------------2-------- /
--0-----------------2-----------0-------0--------------/

----0---------0---2-------2-----2-----0---0---------0-----0------
----0-------------0-------------0---------0---------------0------
----0h1---1-------2-------------2---------0h1---1-------1--------
------------2-----1----1--------1---1-------------2-------2-1----
--------2-------2-----------2p0---------------2---------------4--
--0-----------------2-------------2-----0-------------0----------


Reed Jerry Tabs & ChordsReed Jerry Lyrics



Reed Jerry Tabs, Tablatures, Chords, Lyrics

Buy Reed Jerry CD
Reed Jerry
Buy Reed Jerry CD

  1. Reed Jerry - A Thing Called Love Chords
  2. Reed Jerry - A Thing Called Love 2 Chords
  3. Reed Jerry - Amos Moses Chords
  4. Reed Jerry - Caffeine, Nicotine, Benzedrine (and Wish Me Luck) Chords
  5. Reed Jerry - East Bound And Down Chords
  6. Reed Jerry - Guitar Man Chords
  7. Reed Jerry - I'm Just A Redneck In A Rock And Roll Bar Chords
  8. Reed Jerry - It Don't Work That Way Chords
  9. Reed Jerry - Lord Mr Ford Tabs
  10. Reed Jerry - Mule Skinner Blues Chords
  11. Reed Jerry - Poke Salad Annie Tabs
  12. Reed Jerry - Pretty Mary Sunlite Tabs
  13. Reed Jerry - She Got The Gold Mine Chords
  14. Reed Jerry - Smell The Flowers Chords
  15. Reed Jerry - The Bandit Chords
  16. Reed Jerry - The Claw Tabs
  17. Reed Jerry - The Man With The Goiden Thumb 4 Tabs
  18. Reed Jerry - Tryin Stuff On Chords
  19. Reed Jerry - West Bound And Down Chords
  20. Reed Jerry - When You're Hot,you're Hot Chords



cowboylyrics.com
All lyrics are property and copyright of their owners. All lyrics provided for educational purposes only.