Dan Reeder, Havana Burning Tabs, Chords, Lyrics

Dan Reeder, Havana Burning Tabs, Chords

 SITE MENU
 Request Tabs
 Add/Correct Tabs
 DMCA Policy
 Country Sheet Music
0

BROWSE LYRICS AND TABS BY ARTIST/BAND NAME: SEARCH HERE:
A B C D E F G H I J K L M N O P Q R S T U V W X Y Z #
 

Dan Reeder - Havana Burning (Chords)


Dan Reeder CD
Dan Reeder Sheet music
Dan Reeder Posters
[key of F]

Dm         Gm
if i had a pistol
C                (lick 1*)
  i could join a revolution
Bdim7           C#dim7  
 just like Che  imagine me
Dm                C      Bb
hunkered down low in the sugar cane
                            F
watching havana burning  ...
 
CHORDS:
Bdim7 (not exactly that, but heres the tab):
e|----------------------------------------|
B|----------------------------------------|
G|--------0------------------------------|
D|--------3------------------------------|
A|--------2-------------------------------|
E|----------------------------------------|

C#dim7 (same as above, just up 2 frets):
e|----------------------------------------|
B|----------------------------------------|
G|--------2------------------------------|
D|--------5------------------------------|
A|--------4------------------------------|
E|----------------------------------------|


*lick 1
e|---------------------------------------------------------------------------|
B|---------------------------------------------------------------------------|
G|----------------5---------------------------------------------------------|
D|--------5-/-7----7-/-5--3-----------------------------------------------|
A|---------------------------------------------------------------------------|
E|---------------------------------------------------------------------------|


Reeder Dan Tabs & ChordsReeder Dan Lyrics



Reeder Dan Tabs, Tablatures, Chords, Lyrics

Buy Reeder Dan CD
Reeder Dan
Buy Reeder Dan CD

  1. Reeder Dan - Beautiful Chords
  2. Reeder Dan - Havana Burning Chords



cowboylyrics.com
All lyrics are property and copyright of their owners. All lyrics provided for educational purposes only.