Julie Reeves, What I Need Tabs, Chords, Lyrics

Julie Reeves, What I Need Tabs, Chords

 SITE MENU
 Request Tabs
 Add/Correct Tabs
 DMCA Policy
 Country Sheet Music
0

BROWSE LYRICS AND TABS BY ARTIST/BAND NAME: SEARCH HERE:
A B C D E F G H I J K L M N O P Q R S T U V W X Y Z #
 

Julie Reeves - What I Need (Chords)


Julie Reeves CD
Julie Reeves Sheet music
Julie Reeves Posters

Song:       What I Need
Artist:     Julie Reeves
-------------------------------------------------------------------------
NOTES:
-------------------------------------------------------------------------
All chords and tabs are relative to the capo.  The chords in the tab are

marked by 2 chords.  The first chord and the main riff are played by the

first guitar, and the second set of chords, the second riff, and the
solo
are played by a second guitar capoed on 5.  (Both guitars are standard
tuning, tuned down half a step, but guitar 2 may be normal tuning with
the capo on 4).

This is taken from the live version played on CMT, but my reference for
the
solo and lyrics was the album cut.

I have not marked the timing at all in the tablature ... I am assuming
that
you have heard this song before when you play the tab.  I believe you
will
find that this is very close to the original.

This work is solely my interpretation of the music and may be freely
used
for non-profit educational and recreational purposes.
---------------------------------------------------------------------------

----------
Main riff:
----------
     G|D                              Cadd9|G
eb --3----3-------------------------------------------
Bb --3------------------------------------------------
Gb --0------0h2-2--2--2--0-----------------0--0h2-0---
Db --0-----------------------0h2--0---0h2-------------
Ab --2--------------------------------3---------------
Eb --3------------------------------------------------

------------
Second riff:
------------
This is simply a guess because
I can't remember exactly how
it goes

eb ---3---2---0---------------
Bb ---------------3---0---3---
Gb ---------------------------
Db ---------------------------
Ab ---------------------------
Eb ---------------------------

-----
Solo:
-----
     G|D                   Cadd9|G   D|A
eb -----------------------------------------------------
Bb -----------------------------------------------------
Gb -----------------------------------------------------
Db --7-7/9----7p5--7-7/9---7-9-9/10--9--7-7h9p7/5--7p5--
Ab -----------------------------------------------------
Eb -----------------------------------------------------

     G|D                              Cadd9|G       D|A
eb -----------------------------------10--10------------
Bb --------------8---7h8/10--8-10/12----------13-12-10--
Gb ------7---7/9---9------------------------------------
Db --7/9---9--------------------------------------------
Ab -----------------------------------------------------
Eb -----------------------------------------------------

-----
Song:
-----

[Main riff twice]

          G|D
I know if I just keep my distance
         Cadd9|G
You will see what you are missing
             G|D                                 Cadd9|G
And you will learn that no one can love you like I do
         G|D
I look involved in conversation
        Cadd9|G
But I'm strugglin' with temptation
     G|D                        Cadd9|G    D|A
So tonight as you walk into the room


       G|D
What I want is to hold you
      Cadd9|G      D|A
Cause my world without you
   G|D                          Cadd9|G     D|A
Is just another lonely place to be
           G|D
But what I need is to hold out
  Cadd9|G      D|A
Until you have no doubt
             G|D                       Cadd9|G  D|A
There's only one love for you and it's me
           Cadd9|G             D|A
So I'll be strong 'til you can believe
       G[main riff]|D
What I need


     G|D
My impression of what love is
          Cadd9|G
Comes and goes like your kisses
              G|D                       Cadd9|G[Second Riff]
It's clear as day when I hold you in my arms
              G|D
Though I'll admit that you're my weakness
    Cadd9|G
I'm gonna fight these feelings
      G|D                     Cadd9|G  D|A
Until you can promise me your heart


       G|D
What I want is to hold you
      Cadd9|G      D|A
Cause my world without you
   G|D                          Cadd9|G     D|A
Is just another lonely place to be
           G|D
But what I need is to hold out
  Cadd9|G      D|A
Until you have no doubt
             G|D                       Cadd9|G  D|A
There's only one love for you and it's me
           Cadd9|G             D|A
So I'll be strong 'til you can believe
       G|D[Solo]
What I need


           G|D
But what I need is to hold out
  Cadd9|G       D|A
Until you have no doubt
             G|D                       Cadd9|G   D|A
There's only one love for you and it's me
           Cadd9|G             D|A
So I'll be strong 'til you can believe
       G[Main Riff]|D
What I need
       G[Main Riff]|D
What I need

-----------------------
Guitar 1 finishes with:
-----------------------

eb ---3---------------3---
Bb -------3-----------3---
Gb -----------0-------0---
Db -------------------0---
Ab -------------------2---
Eb -------------------3---


Reeves Julie Tabs & ChordsReeves Julie Lyrics



Reeves Julie Tabs, Tablatures, Chords, Lyrics

Buy Reeves Julie CD
Reeves Julie
Buy Reeves Julie CD

  1. Reeves Julie - Do You Think About Me Chords
  2. Reeves Julie - Trouble Is A Woman Chords
  3. Reeves Julie - What I Need Chords



cowboylyrics.com
All lyrics are property and copyright of their owners. All lyrics provided for educational purposes only.