Ronna Reeves, Never Let Him See Me Cry Tabs, Chords, Lyrics

Ronna Reeves, Never Let Him See Me Cry Tabs, Chords

 SITE MENU
 Request Tabs
 Add/Correct Tabs
 DMCA Policy
 Country Sheet Music
0

BROWSE LYRICS AND TABS BY ARTIST/BAND NAME: SEARCH HERE:
A B C D E F G H I J K L M N O P Q R S T U V W X Y Z #
 

Ronna Reeves - Never Let Him See Me Cry (Chords)


Ronna Reeves CD
Ronna Reeves Sheet music
Ronna Reeves Posters
Intro;

E---------------------------------------------------
B---------------------------------------------------
G---------------------------------------------------
D--4-----4-----4-----4-----4-----4-----5-----5-----5
A--5-x-x-5-x-x-5-x-x-5-x-x-5-x-x-5-x-x-5-x-x-5-x-x-5
E---------------------------------------------------
     pm    pm    pm    pm...

----------------------------------------------------
----------------------------------------------------
----------------------------------------------------
-----2-----2-----2-----4-----4-----4-------4-----4--
-x-x-4-x-x-4-x-x-4-x-x-5-x-x-5-x-x-5-x-x-x-5-x-x-5-x
----------------------------------------------------
                    
----------------------------------------------------
----------------------------------------------------
----------------------------------------------------
---4-----5-----5-----5-----2-----2-----2-----4------
-x-5-x-x-5-x-x-5-x-x-5-x-x-4-x-x-4-x-x-4-x-x-5------
----------------------------------------------------
                                            I saw h..

Verse 1
 D
I saw him on the street today
 G                    A                D
he said I was looking better than ever

he smiled at me that same old way
         G            A                    G
while we talked about work and the weather
         A      D                  G
If I was shakin' ,he sure couldn't tell
   A  Bm    G   A   Bm    A
if my heart was breakin' I hid it real well...

Chorus;
 D                            Bm
I don't let my feelings show, he doesn't even have a clue
G
How could he let a good thing go
A
the love I gave was strong and true
D                               Bm
And I don't have to be ashamed, I can hold my head up high
G
I was not the one to blame
A                            D G A
I never let him see me cry...

Verse 2
 D
Too soon there wasn't much to say
 G                           A
I checked my watch and said " guess I'll be goin'"
 D
He touched me, but I turned away
         G                 A                G
When the tears fell he had no way of knowin' 
              A    D                 G
There's no denying ,he still gets to me
      A Bm G   A    Bm A
but I only cry when I know he can't see...

Repeat Chorus;

ENDING;
D G A     D G A     D G A....
 


Reeves Ronna Tabs & ChordsReeves Ronna Lyrics



Reeves Ronna Tabs, Tablatures, Chords, Lyrics

Buy Reeves Ronna CD
Reeves Ronna
Buy Reeves Ronna CD

  1. Reeves Ronna - Never Let Him See Me Cry Chords



cowboylyrics.com
All lyrics are property and copyright of their owners. All lyrics provided for educational purposes only.