, Seven Turns Tabs, Chords, Lyrics

, Seven Turns Tabs, Chords

 SITE MENU
 Request Tabs
 Add/Correct Tabs
 DMCA Policy
 Country Sheet Music
0

BROWSE LYRICS AND TABS BY ARTIST/BAND NAME: SEARCH HERE:
A B C D E F G H I J K L M N O P Q R S T U V W X Y Z #
 

- Seven Turns (Tabs)


CD
 Sheet music
Posters
Seven Turns         by Richard Betts

  Gtr I
|-----------------|-------2-2-3-2-2-|-2-2---------2-2-|---------3-|
|-----3---------3-|-----3-3-3-3-3-3-|-3-3---------3-3-|---------3-|
|-----0---------0-|-----0-2-2-2-3-2-|-2-2---------2-2-|---------0-|
|-----0---2-----0-|---2-------------|-----------------|---------0-|
|---2---3-----2---|-3---------------|-----3-2-0-------|-3-2-0---2-|
|-3---------3-----|-----------------|-----------3-----|-------3-3-|


|-----------------|---2-2-3-2-2-2-2-|---------2-2-----|-----3---|
|-3---------3-----|-3-3-3-3-3-3-3-3-|---------3-3-----|-----3---|
|-0---------0-----|-0-2-2-2-3-2-2-2-|---------2-2-----|-----0---|
|-0---2-----0---2-|-----------------|-----------------|-----0---|
|---3-----2---3---|-----------------|-3-2-0-------3-2-|-0---2---|
|-------3---------|-----------------|-------3---------|---3-3---|



INTRO : Gtr II  - 
G C D   (as per tab - Repeat 4 Times)

Csus2               G
Seven turns on a Highway
Csus2           G
Seven rivers to cross
Csus2                   G         Em    C
Sometimes you feel like you could fly away
C            G/B  D
Sometimes you get lost


Csus2               G
Sometimes in the darkest night
Csus2           G
You see a cross road sign
Csus2         G    Em    C
One way in the morning light
C            G/B         D
You got to make up your mind


G          C           D
Somebody's calling your name
G          C          D
Somebody's waiting for you
C  Em    C       G           Am
Love is all that remains the same
E-B   Em         C          D
That's what it's all coming to.

FIRST SOLO: 
  G C D G C D C  Em G C G C G

Csus2               G
Running wild out on the Road
Csus2               G
Just like a leaf on the wind
Csus2         G    Em    C
How in the world could you ever have known
C        G/B         D
We'd ever meet again

Csus2               G
Seven turns on a Highway
Csus2               G
Seven river to cross
Csus2         G    Em    C
Sometimes you feel like could fly away
C            G/B  D
Sometimes you get lost
[Repeat 2 Times]


Somebody's calling your name
Somebody's waiting for you
Love is all that remains the same
That's what's it's all coming to.

[End Repeat]


G          C           D
Somebody's calling your name
        (second voice : somebody's calling your name )
G         C           D
Somebody's waiting for you
        (second voice : Somebody's waiting for you )
G          C            D
Somebody's calling your name
        (second voice : somebody's calling your name )
Em                       D
That's what it's all coming to.

FINAL SOLO:  C G C S C G C D  [Repeat 3 Times]


G              C      D
Somebody is calling your name
        (second voice : somebody's calling your name )
G              C      D
Somebody is waiting for you
        (second voice : somebody's calling your name )
G              C      D
Somebody is calling your name
        (second voice : somebody's calling your name )
Em                          D
That's what it's all coming to.

[Repeat 2 Times and Fade]


Seven Turns  by Richard Betts, Allman Brothers Band


Richard Betts Tabs & Chords



Richard Betts Tabs, Tablatures, Chords, Lyrics

Buy Richard Betts CD
Richard Betts
Buy Richard Betts CD

  1. Richard Betts - Seven Turns Tabs
  2. Richard Betts - Stormy Monday Chords



cowboylyrics.com
All lyrics are property and copyright of their owners. All lyrics provided for educational purposes only.