, When You Say Nothing At All 3 Tabs, Chords, Lyrics

, When You Say Nothing At All 3 Tabs, Chords

 SITE MENU
 Request Tabs
 Add/Correct Tabs
 DMCA Policy
 Country Sheet Music
0

BROWSE LYRICS AND TABS BY ARTIST/BAND NAME: SEARCH HERE:
A B C D E F G H I J K L M N O P Q R S T U V W X Y Z #
 

- When You Say Nothing At All 3 (Tabs)


CD
 Sheet music
Posters
When You Say Nothing At All
Ronan Keating Version

Verse

E-----------------2-3----------------2h3------
B---------3----------------3-------3----------
G-----------0---2--------0---0---2------------
D-------0-----0----------------0--------------
A----------------------3----------------------
E-----3--------------------------------------- repeat 

It's amazing how you can speak right to my heart....


Bridge

----------3---------------2--------------
------3-------3-------3-------3----------
----0---0---0---0---2---2---2---2--------
------------------0----------------------
--3--------------------------------------
-----------------------------------------

Try as I may, I could never explain

-------------2-3------------------0---------------2------
-----3----------------3-------3-------3-------3-------3--
-------0---2--------0---0---2---2---2---2---2---2---2---2
---0-----0----------------0---------------0--------------
------------------3--------------------------------------
-3-------------------------------------------------------

What I hear when you don't say a thing.....


CHORUS (SAME AS VERSE), EXCEPT


-------2-3-------------------------0---------------2-------
---3-----------3-------3-------3-------3-------3-------3---
----0-2------0---0---0---0---2---2---2---2---2---2---2---2-
--0--0---------------------0---------------0---------------
-----------3-------3---------------------------------------
-3---------------------------------------------------------

The touch of your hand says you'll catch me if ever I fall.....

---------3--------2-----------
-----3-------3----3-----------
---0---0---0---0--2-----------
------------------------------
-3----------------------------
------------------------------

You say it best,     when you say nothing at all.


2nd Verse 
Bridge
Chorus
Solo
Chorus


I've seen a lot of tabs for this song, but none of them are 100% accurate.  
This is probably the best you'll find.
If you want the Allison Krause Version, I can post that one up too.



Ronan Keating Tabs & Chords



Ronan Keating Tabs, Tablatures, Chords, Lyrics

Buy Ronan Keating CD
Ronan Keating
Buy Ronan Keating CD

  1. Ronan Keating - When You Say Nothing At All 3 Tabs



cowboylyrics.com
All lyrics are property and copyright of their owners. All lyrics provided for educational purposes only.