, Through The Gates Tabs, Chords, Lyrics

, Through The Gates Tabs, Chords

 SITE MENU
 Request Tabs
 Add/Correct Tabs
 DMCA Policy
 Country Sheet Music
0

BROWSE LYRICS AND TABS BY ARTIST/BAND NAME: SEARCH HERE:
A B C D E F G H I J K L M N O P Q R S T U V W X Y Z #
 

- Through The Gates (Tabs)


CD
 Sheet music
Posters
Artist: Russ Barenburg


Part A
       Dsus2                           G                    A  
E -------------------------------------------------------------
B ---------------------------------------3-3-------------------
G ---------------------------------2-2-4------4-2---2----------
D -0-2-2-4---4---2-0-------0-2-4------------------4---4-024-2--
G -------------------2-0-2-------------------------------------
E -------------------------------------------------------------
                                                        |3|    

     Bm                   A       G              A    Dsus2
E ---------------------------------------------------------
B ------------------------------------3-3------------------
G ------------------------------2-2-4------4-2---2---------
D -0-2-2-4--4--2-0-------0-2-4-----------------4---4-242-0-
G -----------------2-0-2-----------------------------------
E ---------------------------------------------------------
                                                   |3|

Part B
   Dsus2                         Bm                          
E ----------------------0-2-0--------------------------------
B -2h3--3---3-2h3--3--3-------3--2h3--3---3-2h3--3--3--------
G ----------------------------------------------------2------
D ------------------------------------------------------4-2-0
A -----------------------------------------------------------
E -----------------------------------------------------------


 G                              E       f#      G       A
E ----------------------0-2-5-2-0-------------------------------
B -2h3--3---3-2h3--3--3-----------3-2-3-------0-3---0-3---------
G --------------------------------------2---2-----2-----2-------
D ----------------------------------------4---------------4-2-0-
A --------------------------------------------------------------
E --------------------------------------------------------------


Russ Barenburg Tabs & Chords



Russ Barenburg Tabs, Tablatures, Chords, Lyrics

Buy Russ Barenburg CD
Russ Barenburg
Buy Russ Barenburg CD

  1. Russ Barenburg - Through The Gates Tabs



cowboylyrics.com
All lyrics are property and copyright of their owners. All lyrics provided for educational purposes only.