Saving Abel, 18 Days Tab Tabs, Chords, Lyrics

Saving Abel, 18 Days Tab Tabs, Chords

 SITE MENU
 Request Tabs
 Add/Correct Tabs
 DMCA Policy
 Country Sheet Music
0

BROWSE LYRICS AND TABS BY ARTIST/BAND NAME: SEARCH HERE:
A B C D E F G H I J K L M N O P Q R S T U V W X Y Z #
 

Saving Abel - 18 Days Tab (Chords)


Saving Abel CD
Saving Abel Sheet music
Saving Abel Posters
verse and chorus
e|----------------------------------------------------------------------|
b|----------------------------------------------------------------------|
g|----5-----------------5-------5---------------------------------------|
d|3---5---5---5-----3---5---5---5---------------------------------------|
a|3---3---5---5-----3---3---5---7---------------------------------------|
e|1-------3---3-----1-------3-------------------------------------------|
 just listen to the song to find the strum patterns

bridge
e|-----------------------------------|
b|-----------------------------------|
g|---------------------5-------------|
d|7----------5---------5-------------|
a|7----------5---------3-------------|
e|5----------3-----------------------|


Saving Abel Tabs & ChordsSaving Abel Lyrics



Saving Abel Tabs, Tablatures, Chords, Lyrics

Buy Saving Abel CD
Saving Abel
Buy Saving Abel CD

  1. Saving Abel - 18 Days Chords
  2. Saving Abel - 18 Days Tab Chords
  3. Saving Abel - Addicted Tab Chords
  4. Saving Abel - After All Chords



cowboylyrics.com
All lyrics are property and copyright of their owners. All lyrics provided for educational purposes only.