Saving Abel, Addicted Tab Tabs, Chords, Lyrics

Saving Abel, Addicted Tab Tabs, Chords

 SITE MENU
 Request Tabs
 Add/Correct Tabs
 DMCA Policy
 Country Sheet Music
0

BROWSE LYRICS AND TABS BY ARTIST/BAND NAME: SEARCH HERE:
A B C D E F G H I J K L M N O P Q R S T U V W X Y Z #
 

Saving Abel - Addicted Tab (Chords)


Saving Abel CD
Saving Abel Sheet music
Saving Abel Posters
INTRO

Gt.1				PLAY 2 TIMES

e-------1-P-0-----------1-P-0----------1-P-0------------------------|
b-------------3---------------3--------------3-------3-------5------|
g----2---------------0---------------0------------------------------|
d--0-----------------------------------------------3-------5--------|
a------------------3--------------2----------------1-------3--------|
d-------------------------------------------------------------------|




GT.1  (end of first verse)
e----------------------------------------------------------------------|
b----------------------------------------------------------------------|
g-------------7-BEND FULL STEP AND HOLD--------------------------------|
d----------------------------------------------------------------------|
a----------------------------------------------------------------------|
d----------------------------------------------------------------------|

GT.2
e-----------------------10-------------------------------------------|
b----------------6--------------------------------------8------------|
g----------7--------------------------------------0------------------|
d----0------------------------------------8/10-----------------------|
a--------------------------------------------------------------------|
d--------------------------------------------------------------------|

GT.3
e----------------------1-------------------------------3--------------|
b-----------------3-------------------------------3-------------------|
g-----------2--------------------------------0------------------------|
d----0----------------------------------------------------------------|
a----------------------------------------3----------------------------|
d---------------------------------------------------------------------|



2nd Verse

e----------------1-P-0-----------------------------1-P-0-----------------------|
b-----------------------3----------------------------------3-------------------|
g---------2----------------------------------0---------------------------------|
d----0-------------------------------------------------------REPEAT 3 TIMES----|
a--------------------------------------3---------------------------------------|
d------------------------------------------------------------------------------|

GT.1 (end of 2nd verse)
e----------1-P-0---------------1-------------------------------------------|
b---------------------3--------3-------------------------------------------|
g------------------------------2-------------------------------------------|
d---3--------------------------0-------------------------------------------|
a---1----------------------------------------------------------------------|
d--------------------------------------------------------------------------|


GT.2  (end of 2nd verse)
e-------------------------------------------------------------------------|
b-------------------------------------------------------------------------|
g-------------------------------------------------------------------------|
d----3-----5-------7---5-----5-----3-----0--------------------------------|
a----1-----3-------5---3-----5-----3-----0--------------------------------|
d----------------------------5-----3-----0--------------------------------|




PRE-CHORUS
GT.1
e-------------------------------------------------------------------------|
b-------------------------------------------------------------------------|
g-------------------------------------------------------------------------|
d----0-0-0-0-0-0-0-0----3-3-3-3--5-5-5-5------------REPEAT 4 TIMES--------|
a----0-0-0-0-0-0-0-0----3-3-3-3--5-5-5-5----------------------------------|
d----0-0-0-0-0-0-0-0----3-3-3-3--5-5-5-5----------------------------------|


GT.2 repeat 3x's
e---------------------------------------------------------------------------|
b---------------------------------------------------------------------------|
g-----------------11--11---------------------------------------------12-----|
d-----------------------------12---12-----10----10--------10-----12------12-|
a-----------------------------------------------------10--------------------|
d---------------------------------------------------------------------------|

GT.2 (cont.)

e---------------------------------------------------------------------------|
b---------------------------------------------------------------------------|
g-----------------11--11----------------------------------------------------|
d-----------------------------12---12-----10----10-----10--10---10---10-----|
a---------------------------------------------------10----------------------|
d---------------------------------------------------------------------------|



CHORUS
GT.1 (listen to rhythm)
e--------------------------------------------------------------------------|
b--------------------------------------------------------------------------|
g--------------------------------------------------------------------------|
d--0---5-------3------------------5--5---3----5----3----5----0-------------|
a--0---3=------3---STRUM----------5--5---3----5----3----3----0-------------|
d--0-----------3------------------5--5---3----5----3---------0-------------|


GT.2	(plays the same “strum” chords as above, but at then end it does this)
e--------------------------------------------------13--13-----------------|
b----------------------------------------------------------13---13--------|

Bridge/Lead
GT.1 (part one)
e-----------------------------------------------------------------|
b-----------------------------------------------------------------|
g-----------------------------------------------------------------|
d--0----3-----5--------------------5----5----3----5-----3----0----|
a--0----1-----3-----strum-------==-5----5----3----5-----3----0----|
d--0-------------------------------5----5----3----5-----3----0----|


GT.2 (part one)
e---------------------------------------------------------------------------|
b---------------------------------------------------------------------------|
g---12^ 10-----7-h-9--7—9/10---9---5----7--7/9--7---5--4------------11/-----|
d---------------------------------------------------------5--7--------------|
a-------------------------------------------------------------------9-/-----|
d---------------------------------------------------------------------------|


GT.1 (part two)
e-----------------------------------------------------------------------|
b-----------------------------------------------------------------------|
g-------------------------------------------------------5---5-----------|
d------5-----7--7------5-----7/----------7---7----5------------3---3----|
a------3-----5--5------3-----5-/---------5---5----3---------------------|
d-----------------------------------------------------------------------|


GT.2 (part two)
e----------------------------------------------------------------------------|
b----------------------------------------------------------------------------|
g------------------------------------11-11-----------------------------------|
d----------------------------------------------12-12--10-10-----10-10-10-10--|
a------------------------------------------------------------10--------------|
d----------------------------------------------------------------------------|

THEN REPEAT 2ND VERSE FOR GUITARS
(BASS PLAYS A DIFFERENT RUN THAT IS WHY IT SOUNDS DIFFERENT)


THEN PRE-CHORUS


THEN Regular CHORUS


Then 2nd Chorus (Different Chords)
e--------------------------------------------------------------------------|
b--------------------------------------------------------------------------|
g----12^(half & back down)----10-------11-------12---strum-----------14----|
d---------------------------------------------repeat---(then end on)-------|
a--------------------------------------9--------10---strum-----------12----|
d--------------------------------------------------------------------------|


e-------------------------------------------------------------------------|
b-------------------------------------------------------------------------|
g-------------------------------------------------------------------------|
d------0---3---5-------5--5---3----5----3---------5----0-----REPEAT-------|
a------0---1---3-------5--5---3----5----3---------3----0------------------|
d------0---------------5--5---3----5----3--------------0------------------|


BREKDOWN
GT.1 (you’ll have to listen to the rhythm to this part)
e-------------------------------------------------------------------------|
b-------------------------------------------------------------------------|
g-------------------------------------------------------------------------|
d---3--5--------3--5---5--------0--5-0---------3--5--7--------------------|
a---1--3---0----1--3---5--------0--5-0---------3--5--7--------------------|
d----------0-----------5--------0--5-0---------3--5--7--------------------|


GT.2 (part one)
e------------------------------------------------------------------------|
b------------------------------------------------------------------------|
g—7^(half bend hold then release)--7-------7----9----9/10----9----7------|
d------------------------------------------------------------------------|
a------------------------------------------------------------------------|
d------------------------------------------------------------------------|


GT.2 (part one)
e---------------------------------------------------------------------------|
b---------------------------------------------------------------------------|
g—7^(half bend hold then release)--7-------7----9----9/10------10/12-----9--|
d---------------------------------------------------------------------------|
a---------------------------------------------------------------------------|
d---------------------------------------------------------------------------|

CLEAN BRIDGE
GT.1 (part one)
e------------------------------------0-----1-p-0----------------------|
b------------------------------3--------------------------------------|
g--------------0--------0------2-------2------------------------------|
d------------2--------0--------0--------------------------------------|
a--0---2---3--------2-------------------------------------------------|
d---------------------------------------------------------------------|


GT.1 (part two)
e------------------------------------------------------|
b------------------------------------------------------|
g-------------------------0-------------0--------------|
d---------------------3--------------5-----------------|
a-------0---------1--------------3------------3/5------|
d---5--------------------------------------------------|


CLEAN VOCAL PART

e------1-P-0------------1-P-0-----------1-P-0------------------------|
b-------------3---------------3---------------3----------------------|
g----2----------------0---------------0------------------------------|
d--0-----------------------------------------------3---3----3---3----|
a------------------3---------------2---------------1---1----1---1----|
d--------------------------------------------------------------------|


GT.1
e--------------------------------------------------------------|
b--------------------------------------------------------------|
g--------------------------------------------------------------|
d--0--------------3-----------------5---5----5---5---5---------|
a--0--STRUM-------1--STRUM----------3---3----3---3---2---------|
d--0-----------------------------------------------------------|

GT.2
e----------------------------------------------------------------------|
b----------------------------------------------------------------------|
g---9^(half bend)-7-----9---10-10---10---10--9-------------------------|
d----------------------------------------------------------------------|
a-----------------------7--8---8----8----8--7--------------------------|
d----------------------------------------------------------------------|


THEN Regular CHORUS


Then 2nd Chorus (Different Chords)
e------------------------------------------------------------------------|
b------------------------------------------------------------------------|
g----12^(half & back down)----10-------11-------12---strum------14-------|
d--------------------------------------------------------------repeat----|
a--------------------------------------9--------10---strum------12-------|
d------------------------------------------------------------------------|


e------------------------------------------------------------------------------|
b------------------------------------------------------------------------------|
g------------------------------------------------------------------------------|
d------0------3-----5-----------5--5---3----5----3---------5----0--------------|
a------0-----1------3-----------5--5---3----5----3---------3----0--------------|
d------0------------------------5--5---3----5----3--------------0--------------|


OUTRO
GT.1
e----------3-3-2---------------3-3-2-----------3-3-2-------------------|
b----------3-3-3---------------3-3-3-----------3-3-3-------------------|
g----------------------------------------------------------------------|
d-3--5----------------3--5--0----------3-5-0---------------3-5--0------|
a-1--3--0-------------3--5--0----------1-3-0---------------3-5--0------|
d-------0---------0-2-3--5--0--------------0-----------0-2-3-5--0------|


GT.2
e--------------------------------------------------------------------------|
b--------------------------------------------------------------------------|
g-10-9--7---------7-9-10-12-7---------10-9-7-----------7-9-10-12-----------|
d--------------------------------------------------------------------------|
a-8--7--5---------5-7-8--10-5---------8--7-5-----------5-7--8-10-----------|
d--------------------------------------------------------------------------|


Saving Abel Tabs & ChordsSaving Abel Lyrics



Saving Abel Tabs, Tablatures, Chords, Lyrics

Buy Saving Abel CD
Saving Abel
Buy Saving Abel CD

  1. Saving Abel - 18 Days Chords
  2. Saving Abel - 18 Days Tab Chords
  3. Saving Abel - Addicted Tab Chords
  4. Saving Abel - After All Chords



cowboylyrics.com
All lyrics are property and copyright of their owners. All lyrics provided for educational purposes only.