, Hole Diggin' Tabs, Chords, Lyrics

, Hole Diggin' Tabs, Chords

 SITE MENU
 Request Tabs
 Add/Correct Tabs
 DMCA Policy
 Country Sheet Music
0

BROWSE LYRICS AND TABS BY ARTIST/BAND NAME: SEARCH HERE:
A B C D E F G H I J K L M N O P Q R S T U V W X Y Z #
 

- Hole Diggin' (Tabs)


CD
 Sheet music
Posters
Not a country tune, but besides that it's just an awesome intro
to a blues tune, it's a great study in hybrid picking. Enjoy.


Hole Diggin'- Scott Henderson

  E

|---2p0---3p0---4p0-----------2p0-------0-2p(0)-3p0----------0------|
|-------------------------------------------------------------------|
|-2-----3-----4-----4p0-3p0-2-----2p0h1------------3p0-2p0h1--------|
|-------------------------------------------------------------------|
|-------------------------------------------------------------------|
|-----------------------------------------------------------------0-|

  A                                E             

|-----2p0-3p0--------6p0-5p0-------4~-3p0-----2--------0----------|
|-----------------------------------------------------------------|
|---2---------3p0-/6---------5s3s4--------3s2---2p0h1-------------|
|-----------------------------------------------------------------|
|-0---------------------------------------------------------------|
|----------------------------------------------------------0------|

  B                                E                      B

|----7-----5p0-3p0------------0-----------------------------------|
|------------------5p0---3b4-------3b5----------------------------|
|-8------6-------------4---------------\2p0-2---0h1-------2~------|
|---------------------------------------------2-----2p0-----------|
|-------------------------------------------------------2---------|
|-7---------------------------------------------------------------|


Scott Henderson Tabs & Chords



Scott Henderson Tabs, Tablatures, Chords, Lyrics

Buy Scott Henderson CD
Scott Henderson
Buy Scott Henderson CD

  1. Scott Henderson - Hole Diggin' Tabs



cowboylyrics.com
All lyrics are property and copyright of their owners. All lyrics provided for educational purposes only.