, Across The Line Tabs, Chords, Lyrics

, Across The Line Tabs, Chords

 SITE MENU
 Request Tabs
 Add/Correct Tabs
 DMCA Policy
 Country Sheet Music
0

BROWSE LYRICS AND TABS BY ARTIST/BAND NAME: SEARCH HERE:
A B C D E F G H I J K L M N O P Q R S T U V W X Y Z #
 

- Across The Line (Chords)


CD
 Sheet music
Posters
Standard Tuning

Riff 1:
e|--0-0-0-0-0-0-0-0--2-3-2-3-2-3-2-3---0-0-0-0-0--0-0-0--0--------||
B|--1-0-1-0-1-0-1-0--3-3-3-3-3-3-3-3---3-3-3-3-3--3-3-3--3--------||
G|--2-2-2-2-2-2-2-2--2-2-2-2-2-2-2-2---0-0-0-0-0--0-0-0--0--------||
D|--2-2-2-2-2-2-2-2--0-0-0-0-0-0-0-0---2-2-2-2-2--0-0-0--2--------||
A|--0-0-0-0-0-0-0-0--------------------3-3-3-3-3--2-2-2--3--------||
E|----------------------------------------------------------------||

Verse Chord Progression:
e|------2---3-----3----3----------||
B|--1---3---3-----3----3----------||
G|--2---2---0-----0----0----------||
D|--2---0---0-----0----0----------||
A|--0-------2---3----2------------||
E|----------3---------------------||

 Am         D           G          Cadd9   Em7
I Left my home in the valley

 Am         D             G        Cadd9  Em7
I Put the mountains to my back

    Am            D                G         Cadd9   Em7
There's nothing wrong with where I come from

Riff 1----------------------------------------------------->
But sometimes it's meant to be just that, whoa across the line


Border town called Pocahontas
Where the main streets stayed light
I found myself between a promise
Between a woman and a friend of mine, whoa across the line


           Am                G
There were sheets of rain, sheets of silk

        D/F#      F       E
Cloudy water, mother's milk

 Am              G
Swollen gorges filled with blood

    D/F#           F       E
I cannot stop the coming flood

   Am         G
Overflowing storm filled drains

  D/F#                 F     E
Bolts of lightning, searing pain

  Am               G
Claps of thunder, dusty wind

  D/F#              F                  E
First I'm out and then I'm in

          F                E
First I'm out and then I'm in


Scott Miller Tabs & Chords



Scott Miller Tabs, Tablatures, Chords, Lyrics

Buy Scott Miller CD
Scott Miller
Buy Scott Miller CD

  1. Scott Miller - Across The Line Chords
  2. Scott Miller - Amtrack Crescent Chords
  3. Scott Miller - Angels Dwell Chords
  4. Scott Miller - Arianne Chords
  5. Scott Miller - Daddy Raised A Boy Chords
  6. Scott Miller - Dear Sarah Chords
  7. Scott Miller - Drunk All Around This Town Chords
  8. Scott Miller - For Jack Tymon Chords
  9. Scott Miller - Freedom Is A Stranger Chords
  10. Scott Miller - It Didn't Take Too Long Chords
  11. Scott Miller - Pull Your Load Chords
  12. Scott Miller - Raised By The Graves Chords
  13. Scott Miller - Red Ball Express Chords
  14. Scott Miller - The Only Road Chords
  15. Scott Miller - Virginia Way Chords



cowboylyrics.com
All lyrics are property and copyright of their owners. All lyrics provided for educational purposes only.