Earl Scruggs, Dear Old Dixie Tabs, Chords, Lyrics

Earl Scruggs, Dear Old Dixie Tabs, Chords

 SITE MENU
 Request Tabs
 Add/Correct Tabs
 DMCA Policy
 Country Sheet Music
0

BROWSE LYRICS AND TABS BY ARTIST/BAND NAME: SEARCH HERE:
A B C D E F G H I J K L M N O P Q R S T U V W X Y Z #
 

Earl Scruggs - Dear Old Dixie (Chords)


Earl Scruggs CD
Earl Scruggs Sheet music
Earl Scruggs Posters
#-----------------------------------PLEASE NOTE---------------------------------#
# This file is the author's own work and represents their interpretation of the #
# song. You may only use this file for private study, scholarship, or research. #
#-------------------------------------------------------------------------------#
p : pull-off    *
h : hammer-on   *
s : slide       *
*****************

G Tuning
Listen for timing.


-9------9-----9-----9-----9-------12-12-14-15-14-12-12-11-10-9-9-----9----
-8---11------------------------------------------------------------8------
------------9---7-------9-----7-------------------------------------------
------------------9-------------------------------------------------------
---0------0-----------0-----0---0--------------------------------0-----0--


-8---9---12-------12---------0----------9---9-----10---10-----10----------
------------10s12------10s12-----8---11-----8--------8------8------8---8--
----------------------------------------------7s9-------------------------
--------------------------------------------------------------------------
---0---0-------------0---------0---0------0---------------0------0---0----


-10-----0--------9-----0---12-11-10-9-9-----9---8---9---12-------12----
--------------11--------------------------8----------------10s12-------
------9---7----------9-------------------------------------------------
-----------------------------------------------------------------------
----0-------0------0-----0--------------0-----0---0---0-------------0--


-------0-------0-----0---------11------11--------9-11-12-14-15-14-12-12-11
-10s12-----8-------8-----10-10------13------10----------------------------
-------------9------------------------------------------------------------
--------------------------------------------------------------------------
---------0-------0-----0----------0-------0----0--------------------------


-10-9-9-----9---8---9---12----12------0----------9---9-----10---10-----10-
----------8----------------11------10-----8---11-----8--------8------8----
-------------------------------------------------------7h9----------------
--------------------------------------------------------------------------
--------0-----0---0---0----------0------0---0------0---------------0------


---10-----10-----9---9---9-----9---9-----9-----9-----10---10-----10-------
---10---8--------------7-----7-----7---7---7------------8------8------10-8
---------------9-----------------------------8---7h9----------------------
-------------------9------------------------------------------------------
-0----0------0-------------7-----7---7-----------------------0------0-----


-10-----10---12-12------12-------14-------14-------14---7-----7-----7----12
------8--------------12----11----------12----12-------------5---5----------
------------------------------------13----------13--------6-------6--------
------------------------------14----------------------7---------------12---
----0------0-------0-------------------------------------------------------


-------12-------12--------9-----9----
----10----10-----------11------------
-11----------11---------------9------
-------------------------------------
-------------------0-0------0-----0--


Scruggs Earl Tabs & ChordsScruggs Earl Lyrics



Scruggs Earl Tabs, Tablatures, Chords, Lyrics

Buy Scruggs Earl CD
Scruggs Earl
Buy Scruggs Earl CD

  1. Scruggs Earl - Cripple Creek Chords
  2. Scruggs Earl - Dear Old Dixie Chords
  3. Scruggs Earl - Duelling banjos Chords
  4. Scruggs Earl - Foggy Mountain Breakdown Chords
  5. Scruggs Earl - The Ballad Of Jed Clampet Chords
  6. Scruggs Earl - You Are My Flower Chords



cowboylyrics.com
All lyrics are property and copyright of their owners. All lyrics provided for educational purposes only.