, Silo Tabs, Chords, Lyrics

, Silo Tabs, Chords

 SITE MENU
 Request Tabs
 Add/Correct Tabs
 DMCA Policy
 Country Sheet Music
0

BROWSE LYRICS AND TABS BY ARTIST/BAND NAME: SEARCH HERE:
A B C D E F G H I J K L M N O P Q R S T U V W X Y Z #
 

- Silo (Tabs)


CD
 Sheet music
Posters
"SILO" (Solos) by The Scud Mountain Boys, as recorded on the "Pine Box" album

Solo #1:

  Am               G               Am     

--------------------------------------------------------------------------
--------------------------------------------------------------------------
--------------------------------------------------------------------------
-----------------------------0---0----------------------------------------
-----------------------0-1-2---2-----------------------------5-6----------
-3-3h5-5-5---5-5-5-3---------------3h5-5-5---5-5-5-3h5-5-5----------------

                 G               Am

-------------------------------------------------------5------------------
----------------------------------------------------------8---------------
-----------5---5\4--------------------------------------------------------
---5---5-7---7-----5-------5---5-7----------------------------------------
-7---7---------------5-6-7---7--------------------------------------------
--------------------------------------------------------------------------

                                 Dm            Am

-/5--------------/7----------------8p7------------------------------------
--------8-----5------------------------8----(8)---------------------------
-----------------------------------------7-9---9-8-7---7-5----------------
-----------------------------------------------------------7-5------------
--------------------------------------------------------------------------
--------------------------------------------------------------------------

                        E7           Am

                        let ring
                           |-----|
--------------------------------------------------------------------------
-----------------------------9--------------------------------------------
---   -5---5-(5)h7-5---5--------------------------------------------------
-(5)h7---7-----------7---7/9------5-(5)h7---------------------------------
--------------------------------------------------------------------------
--------------------------------------------------------------------------





Solo #2:

   Am              G               Am      

-------------------------------------------------------0-----0------------
---------------------------------------------------------3----------------
-------------------------------------0---0-2-0---0-2----------------------
-----------------------------0---0-2-----------2--------------------------
-----------------------0-1-2---2------------------------------------------
-3-3h5-5-5---5-5-5-3------------------------------------------------------

                   G             Am        

-----0---0-5p3---3-5/7-----8----------------------------------------------
-3/5---5-------5----------------/10---8-----------------------------------
------------------------------------------9--/7--5---5--------------------
----------------------------------------------------------5---------------
--------------------------------------------------------------------------
--------------------------------------------------------------------------

                  G           Dm             Am

---------------------------------8p7--------------------------------------
-------------------------------------8----(8)-----------------------------
---------------------------------------7-9---9-8-7---7-5------------------
-5h7------5---5-7/9--------------------------------------7-5--------------
------------7-------------------------------------------------------------
--------------------------------------------------------------------------

                          E7          Am

--------------------------------------------------------------------------
--------------------------------------------------------------------------
-------5------------------------------------------------------------------
-(5)h7---7-5--------5-(7)/9---5---(5)h7-----------------------------------
-------------7-5-7--------------------------------------------------------
--------------------------------------------------------------------------


Scud Mountain Boys Tabs & Chords



Scud Mountain Boys Tabs, Tablatures, Chords, Lyrics

Buy Scud Mountain Boys CD
Scud Mountain Boys
Buy Scud Mountain Boys CD

  1. Scud Mountain Boys - Silo Tabs



cowboylyrics.com
All lyrics are property and copyright of their owners. All lyrics provided for educational purposes only.