Tommy Shaw, Are You Ready For Me Tabs, Chords, Lyrics

Tommy Shaw, Are You Ready For Me Tabs, Chords

 SITE MENU
 Request Tabs
 Add/Correct Tabs
 DMCA Policy
 Country Sheet Music
0

BROWSE LYRICS AND TABS BY ARTIST/BAND NAME: SEARCH HERE:
A B C D E F G H I J K L M N O P Q R S T U V W X Y Z #
 

Tommy Shaw - Are You Ready For Me (Bass Tabs)


Tommy Shaw CD
Tommy Shaw Sheet music
Tommy Shaw Posters
drop C tuning
CADG

:05
G|----------------|
D|----------------|
A|-2--0------0----|
E|-------7------4-| 

:19 
G|-------------------------------------------------------|
D|-------------------------------------------------------|
A|-22222222-22222222-22222222-22222222-00000000-00000000-|
E|-------------------------------------------------------|

:30
G|-----------------------------------------------------------------|
D|-----------------------------------------------------------------|
A|-22222222-22222222--022-22222222-22222222-22222222-22222222-22-0-|
E|-------------------4------------------------------------------4--|

:40
G|------------------------------------------|
D|------------------------------------------|
A|-00000000-00000000--022-22222222-22222222-|
E|-------------------4----------------------|

:47 
G|-------------------------------------|
D|-------------------------------------|
A|-------------------22222222-22222222-|
E|-22222222-11111111-------------------| 

:54
G|----------------------------|
D|----------------------------|
A|----------00000000----------|
E|-22222222----------44444444-| 

1:01
G|---------------------------------------------------------------------|
D|---------------------------------------------------------------------|
A|-22222222-22222222-22-0-00000000-00000000----------00000000----------|
E|---------------------4--------------------77777777----------44444444-|

1:15
G|------------------------------------------------------------|
D|------------------------------------------------------------|
A|-22222222-22222222-22222222-22222222-22-0-00000000-00000000-|
E|---------------------------------------4--------------------|

1:26
G|-----------------------------------------------------------------|
D|-----------------------------------------------------------------|
A|-22222222-22222222--022-22222222-22222222-22222222-22222222-22-0-|
E|-------------------4------------------------------------------4--|

1:36
G|------------------------------------------|
D|------------------------------------------|
A|-00000000-00000000--022-22222222-22222222-|
E|-------------------4----------------------|

1:44
G|-------------------------------------|
D|-------------------------------------|
A|-------------------22222222-22222222-|
E|-22222222-11111111-------------------|

1:51
G|--------------------------------|
D|--------------------------------|
A|------------0-00000000----------|
E|-22222222-24-----------44444444-|

1:57
G|----------------------------------------------------------------------------------------|
D|----------------------------------------------------------------------------------------|
A|-22222222-22222222-22-0-00000000-00000000-00------------00000000-00-2-22222222-22222222-|
E|---------------------4----------------------47-77777777------------4--------------------|

2:11
G|-----------------------------------------------------------------------------------|
D|-----------------------------------------------------------------------------------|
A|---02-22222222-22222222-22-0-00000000-00000000----------00000000-------------------|
E|-44-----------------------4--------------------77777777----------44444444-44444444-|

2:26
G|----------------------------------------------------------------|
D|----------------------------------------------------------------|
A|-------------------22222222-22222222----------00000000----------|
E|-22222222-11111111-------------------22222222----------44444444-|

2:40 x2
G|-------------------------------------------------------------------------|
D|-------------------------------------------------------------------------|
A|-22222222-22222222-22222222-22222222-00000000-00000000-22222222-22222222-|
E|-------------------------------------------------------------------------|

3:08
G|-------------------------------------|
D|-------------------------------------|
A|-------------------22222222-22222222-|
E|-22222222-11111111-------------------|

3:15
G|----------------------------|
D|----------------------------|
A|----------00000000----------|
E|-22222222----------44444444-|

3:22
G|-------------------------------------------------------------------------|
D|-------------------------------------------------------------------------|
A|-22222222-22222222-00000000-00000000----------00000000-22222222-22222222-|
E|-------------------------------------77777777----------------------------|

3:36
G|-----------------------------------------------------------------------------------|
D|-----------------------------------------------------------------------------------|
A|-22222222-22222222-22-0-00000000-00000000-00------------00000000-22222222-22222222-|
E|---------------------4----------------------47-77777777----------------------------|

3:50 repeat until end
G|--------------------------------------------------------------------------------------|
D|--------------------------------------------------------------------------------------|
A|-22222222-22222222-22-0-00000000-00000000-00---------------00000000-22222222-22222222-|
E|---------------------4----------------------47-77777777-74----------------------------|


Shaw Tommy Tabs & ChordsShaw Tommy Lyrics



Shaw Tommy Tabs, Tablatures, Chords, Lyrics

Buy Shaw Tommy CD
Shaw Tommy
Buy Shaw Tommy CD

  1. Shaw Tommy - Are You Ready For Me Bass Tabs
  2. Shaw Tommy - Free To Love You Bass Tabs
  3. Shaw Tommy - Heads Up Bass Tabs
  4. Shaw Tommy - No Such Thing Bass Tabs
  5. Shaw Tommy - Somewhere In The Night Bass Tabs



cowboylyrics.com
All lyrics are property and copyright of their owners. All lyrics provided for educational purposes only.